ISO-10303-21;
HEADER;
FILE_DESCRIPTION (( 'STEP AP214' ),
    '1' );
FILE_NAME ('CORNERFILL# 100805.STEP',
    '2016-06-27T20:52:16',
    ( 'temp' ),
    ( '' ),
    'SwSTEP 2.0',
    'SolidWorks 2016',
    '' );
FILE_SCHEMA (( 'AUTOMOTIVE_DESIGN' ));
ENDSEC;

DATA;
#1 =( CONVERSION_BASED_UNIT ( 'INCH', #99 ) LENGTH_UNIT ( ) NAMED_UNIT ( #143 ) );
#2 = LINE ( 'NONE', #91, #83 ) ;
#3 =( GEOMETRIC_REPRESENTATION_CONTEXT ( 3 ) GLOBAL_UNCERTAINTY_ASSIGNED_CONTEXT ( ( #184 ) ) GLOBAL_UNIT_ASSIGNED_CONTEXT ( ( #17, #177, #158 ) ) REPRESENTATION_CONTEXT ( 'NONE', 'WORKASPACE' ) );
#4 = DIRECTION ( 'NONE',  ( 0.0000000000000000000, 0.0000000000000000000, 1.000000000000000000 ) ) ;
#5 = CARTESIAN_POINT ( 'NONE',  ( -1.795849207276722800E-031, -0.8400000000000000800, 5.143516556418884400E-017 ) ) ;
#6 = CARTESIAN_POINT ( 'NONE',  ( 5.143516556418884400E-017, -0.8400000000000000800, 0.0000000000000000000 ) ) ;
#7 = CIRCLE ( 'NONE', #72, 0.7500000000000001100 ) ;
#8 = CARTESIAN_POINT ( 'NONE',  ( 0.0000000000000000000, 0.0000000000000000000, 0.0000000000000000000 ) ) ;
#9 = EDGE_LOOP ( 'NONE', ( #74, #137, #92 ) ) ;
#10 = FACE_OUTER_BOUND ( 'NONE', #138, .T. ) ;
#11 = DIRECTION ( 'NONE',  ( 3.491481338843133000E-015, 0.0000000000000000000, -1.000000000000000000 ) ) ;
#12 = CARTESIAN_POINT ( 'NONE',  ( -2.932844324628232100E-015, -0.8399999999999997500, 0.8400000000000000800 ) ) ;
#13 =( NAMED_UNIT ( * ) PLANE_ANGLE_UNIT ( ) SI_UNIT ( $, .RADIAN. ) );
#14 = CIRCLE ( 'NONE', #79, 0.8400000000000000800 ) ;
#15 = DIRECTION ( 'NONE',  ( -1.000000000000000000, 0.0000000000000000000, 0.0000000000000000000 ) ) ;
#16 = SURFACE_STYLE_FILL_AREA ( #139 ) ;
#17 =( CONVERSION_BASED_UNIT ( 'INCH', #88 ) LENGTH_UNIT ( ) NAMED_UNIT ( #124 ) );
#18 = EDGE_CURVE ( 'NONE', #64, #133, #7, .T. ) ;
#19 = AXIS2_PLACEMENT_3D ( 'NONE', #136, #174, #141 ) ;
#20 = DIRECTION ( 'NONE',  ( 3.491481338843133000E-015, 0.0000000000000000000, -1.000000000000000000 ) ) ;
#21 = DIRECTION ( 'NONE',  ( 3.491481338843133000E-015, 0.0000000000000000000, -1.000000000000000000 ) ) ;
#22 =( NAMED_UNIT ( * ) SI_UNIT ( $, .STERADIAN. ) SOLID_ANGLE_UNIT ( ) );
#23 = ORIENTED_EDGE ( 'NONE', *, *, #97, .F. ) ;
#24 = APPLICATION_CONTEXT ( 'automotive_design' ) ;
#25 = SURFACE_SIDE_STYLE ('',( #129 ) ) ;
#26 = FACE_OUTER_BOUND ( 'NONE', #113, .T. ) ;
#27 = ADVANCED_BREP_SHAPE_REPRESENTATION ( 'CORNERFILL# 100805', ( #90, #34 ), #48 ) ;
#28 = EDGE_CURVE ( 'NONE', #81, #87, #14, .T. ) ;
#29 = AXIS2_PLACEMENT_3D ( 'NONE', #145, #50, #182 ) ;
#30 = SURFACE_STYLE_USAGE ( .BOTH. , #116 ) ;
#31 = DIRECTION ( 'NONE',  ( 1.000000000000000000, 0.0000000000000000000, 3.491481338843133000E-015 ) ) ;
#32 = ORIENTED_EDGE ( 'NONE', *, *, #46, .F. ) ;
#33 = CARTESIAN_POINT ( 'NONE',  ( -2.618611004132350000E-015, -0.8399999999999996400, 0.7500000000000001100 ) ) ;
#34 = AXIS2_PLACEMENT_3D ( 'NONE', #170, #146, #37 ) ;
#35 = LENGTH_MEASURE_WITH_UNIT ( LENGTH_MEASURE( 0.02539999999999999900 ), #110 );
#36 = CARTESIAN_POINT ( 'NONE',  ( -2.618611004132350000E-015, -0.8399999999999997500, 0.7500000000000001100 ) ) ;
#37 = DIRECTION ( 'NONE',  ( 1.000000000000000000, 0.0000000000000000000, 0.0000000000000000000 ) ) ;
#38 = EDGE_CURVE ( 'NONE', #87, #64, #111, .T. ) ;
#39 = ADVANCED_FACE ( 'NONE', ( #10 ), #68, .F. ) ;
#40 = APPLICATION_PROTOCOL_DEFINITION ( 'draft international standard', 'automotive_design', 1998, #128 ) ;
#41 = PRODUCT_DEFINITION ( 'UNKNOWN', '', #53, #130 ) ;
#42 = ORIENTED_EDGE ( 'NONE', *, *, #56, .F. ) ;
#43 = PLANE ( 'NONE',  #57 ) ;
#44 = PLANE ( 'NONE',  #29 ) ;
#45 = PRODUCT_DEFINITION_SHAPE ( 'NONE', 'NONE',  #41 ) ;
#46 = EDGE_CURVE ( 'NONE', #64, #86, #148, .T. ) ;
#47 = ORIENTED_EDGE ( 'NONE', *, *, #28, .T. ) ;
#48 =( GEOMETRIC_REPRESENTATION_CONTEXT ( 3 ) GLOBAL_UNCERTAINTY_ASSIGNED_CONTEXT ( ( #131 ) ) GLOBAL_UNIT_ASSIGNED_CONTEXT ( ( #1, #13, #96 ) ) REPRESENTATION_CONTEXT ( 'NONE', 'WORKASPACE' ) );
#49 = ORIENTED_EDGE ( 'NONE', *, *, #55, .F. ) ;
#50 = DIRECTION ( 'NONE',  ( -0.0000000000000000000, 0.0000000000000000000, -1.000000000000000000 ) ) ;
#51 = DIRECTION ( 'NONE',  ( 3.491481338843133000E-015, 0.0000000000000000000, -1.000000000000000000 ) ) ;
#52 = DIRECTION ( 'NONE',  ( 0.0000000000000000000, 0.0000000000000000000, 1.000000000000000000 ) ) ;
#53 = PRODUCT_DEFINITION_FORMATION_WITH_SPECIFIED_SOURCE ( 'ANY', '', #62, .NOT_KNOWN. ) ;
#54 = CLOSED_SHELL ( 'NONE', ( #155, #39, #167, #109, #95 ) ) ;
#55 = EDGE_CURVE ( 'NONE', #133, #81, #176, .T. ) ;
#56 = EDGE_CURVE ( 'NONE', #81, #60, #153, .T. ) ;
#57 = AXIS2_PLACEMENT_3D ( 'NONE', #70, #31, #11 ) ;
#58 = CARTESIAN_POINT ( 'NONE',  ( -1.795849207276722800E-031, -0.8400000000000000800, 5.143516556418884400E-017 ) ) ;
#59 = EDGE_CURVE ( 'NONE', #86, #60, #2, .T. ) ;
#60 = VERTEX_POINT ( 'NONE', #142 ) ;
#61 = PRODUCT_RELATED_PRODUCT_CATEGORY ( 'part', '', ( #62 ) ) ;
#62 = PRODUCT ( 'CORNERFILL# 100805', 'CORNERFILL# 100805', '', ( #123 ) ) ;
#63 = DIRECTION ( 'NONE',  ( 3.649335648781231600E-030, -1.000000000000000000, -1.045211271268143600E-015 ) ) ;
#64 = VERTEX_POINT ( 'NONE', #164 ) ;
#65 = EDGE_CURVE ( 'NONE', #60, #87, #162, .T. ) ;
#66 = AXIS2_PLACEMENT_3D ( 'NONE', #58, #157, #89 ) ;
#67 = CARTESIAN_POINT ( 'NONE',  ( 0.0000000000000000000, 0.0000000000000000000, 0.0000000000000000000 ) ) ;
#68 = PLANE ( 'NONE',  #114 ) ;
#69 = CARTESIAN_POINT ( 'NONE',  ( -1.795849207276722800E-031, -0.8400000000000000800, 5.143516556418884400E-017 ) ) ;
#70 = CARTESIAN_POINT ( 'NONE',  ( -1.795849207276722800E-031, -0.8400000000000000800, 5.143516556418884400E-017 ) ) ;
#71 = SHAPE_DEFINITION_REPRESENTATION ( #45, #27 ) ;
#72 = AXIS2_PLACEMENT_3D ( 'NONE', #69, #134, #51 ) ;
#73 = AXIS2_PLACEMENT_3D ( 'NONE', #102, #119, #20 ) ;
#74 = ORIENTED_EDGE ( 'NONE', *, *, #56, .T. ) ;
#75 = ORIENTED_EDGE ( 'NONE', *, *, #59, .F. ) ;
#76 = PRESENTATION_STYLE_ASSIGNMENT (( #161 ) ) ;
#77 = UNCERTAINTY_MEASURE_WITH_UNIT (LENGTH_MEASURE( 1.000000000000000100E-005 ), #147, 'distance_accuracy_value', 'NONE');
#78 = DIRECTION ( 'NONE',  ( -0.0000000000000000000, 1.000000000000000000, 0.0000000000000000000 ) ) ;
#79 = AXIS2_PLACEMENT_3D ( 'NONE', #5, #82, #21 ) ;
#80 = DIRECTION ( 'NONE',  ( -1.000000000000000000, 0.0000000000000000000, 0.0000000000000000000 ) ) ;
#81 = VERTEX_POINT ( 'NONE', #12 ) ;
#82 = DIRECTION ( 'NONE',  ( -1.000000000000000000, 0.0000000000000000000, -3.491481338843133400E-015 ) ) ;
#83 = VECTOR ( 'NONE', #100, 39.37007874015748100 ) ;
#84 = FILL_AREA_STYLE_COLOUR ( '', #117 ) ;
#85 = FACE_OUTER_BOUND ( 'NONE', #112, .T. ) ;
#86 = VERTEX_POINT ( 'NONE', #121 ) ;
#87 = VERTEX_POINT ( 'NONE', #67 ) ;
#88 = LENGTH_MEASURE_WITH_UNIT ( LENGTH_MEASURE( 0.02539999999999999900 ), #101 );
#89 = DIRECTION ( 'NONE',  ( -3.491481338843133400E-015, 0.0000000000000000000, 1.000000000000000000 ) ) ;
#90 = MANIFOLD_SOLID_BREP ( 'Revolve1', #54 ) ;
#91 = CARTESIAN_POINT ( 'NONE',  ( 0.7500000000000001100, -0.8399999999999997500, 0.0000000000000000000 ) ) ;
#92 = ORIENTED_EDGE ( 'NONE', *, *, #28, .F. ) ;
#93 = DIMENSIONAL_EXPONENTS ( 1.000000000000000000, 0.0000000000000000000, 0.0000000000000000000, 0.0000000000000000000, 0.0000000000000000000, 0.0000000000000000000, 0.0000000000000000000 ) ;
#94 = STYLED_ITEM ( 'NONE', ( #76 ), #27 ) ;
#95 = ADVANCED_FACE ( 'NONE', ( #26 ), #44, .T. ) ;
#96 =( NAMED_UNIT ( * ) SI_UNIT ( $, .STERADIAN. ) SOLID_ANGLE_UNIT ( ) );
#97 = EDGE_CURVE ( 'NONE', #133, #86, #151, .T. ) ;
#98 = CARTESIAN_POINT ( 'NONE',  ( 5.143516556418884400E-017, -0.8400000000000000800, 0.0000000000000000000 ) ) ;
#99 = LENGTH_MEASURE_WITH_UNIT ( LENGTH_MEASURE( 0.02539999999999999900 ), #120 );
#100 = DIRECTION ( 'NONE',  ( 1.000000000000000000, 0.0000000000000000000, 0.0000000000000000000 ) ) ;
#101 =( LENGTH_UNIT ( ) NAMED_UNIT ( * ) SI_UNIT ( $, .METRE. ) );
#102 = CARTESIAN_POINT ( 'NONE',  ( -1.795849207276722800E-031, -0.8400000000000000800, 5.143516556418884400E-017 ) ) ;
#103 = COLOUR_RGB ( '',0.8980392156862745400, 0.9176470588235293700, 0.9294117647058823800 ) ;
#104 = PRESENTATION_STYLE_ASSIGNMENT (( #30 ) ) ;
#105 = AXIS2_PLACEMENT_3D ( 'NONE', #6, #172, #15 ) ;
#106 = PRESENTATION_LAYER_ASSIGNMENT (  '', '', ( #94 ) ) ;
#107 = FACE_OUTER_BOUND ( 'NONE', #9, .T. ) ;
#108 = APPLICATION_PROTOCOL_DEFINITION ( 'draft international standard', 'automotive_design', 1998, #24 ) ;
#109 = ADVANCED_FACE ( 'NONE', ( #85 ), #43, .F. ) ;
#110 =( LENGTH_UNIT ( ) NAMED_UNIT ( * ) SI_UNIT ( $, .METRE. ) );
#111 = LINE ( 'NONE', #8, #178 ) ;
#112 = EDGE_LOOP ( 'NONE', ( #47, #159, #173, #118 ) ) ;
#113 = EDGE_LOOP ( 'NONE', ( #179, #75, #32, #132 ) ) ;
#114 = AXIS2_PLACEMENT_3D ( 'NONE', #36, #78, #165 ) ;
#115 = MECHANICAL_DESIGN_GEOMETRIC_PRESENTATION_REPRESENTATION (  '', ( #94 ), #126 ) ;
#116 = SURFACE_SIDE_STYLE ('',( #16 ) ) ;
#117 = COLOUR_RGB ( '',0.8980392156862745400, 0.9176470588235293700, 0.9294117647058823800 ) ;
#118 = ORIENTED_EDGE ( 'NONE', *, *, #55, .T. ) ;
#119 = DIRECTION ( 'NONE',  ( -1.000000000000000000, 0.0000000000000000000, -3.491481338843133000E-015 ) ) ;
#120 =( LENGTH_UNIT ( ) NAMED_UNIT ( * ) SI_UNIT ( $, .METRE. ) );
#121 = CARTESIAN_POINT ( 'NONE',  ( 0.7500000000000001100, -0.8399999999999996400, 0.0000000000000000000 ) ) ;
#122 = DIRECTION ( 'NONE',  ( -3.491481338843133000E-015, 0.0000000000000000000, 1.000000000000000000 ) ) ;
#123 = PRODUCT_CONTEXT ( 'NONE', #128, 'mechanical' ) ;
#124 = DIMENSIONAL_EXPONENTS ( 1.000000000000000000, 0.0000000000000000000, 0.0000000000000000000, 0.0000000000000000000, 0.0000000000000000000, 0.0000000000000000000, 0.0000000000000000000 ) ;
#125 = AXIS2_PLACEMENT_3D ( 'NONE', #183, #150, #52 ) ;
#126 =( GEOMETRIC_REPRESENTATION_CONTEXT ( 3 ) GLOBAL_UNCERTAINTY_ASSIGNED_CONTEXT ( ( #77 ) ) GLOBAL_UNIT_ASSIGNED_CONTEXT ( ( #147, #171, #22 ) ) REPRESENTATION_CONTEXT ( 'NONE', 'WORKASPACE' ) );
#127 = SPHERICAL_SURFACE ( 'NONE', #73, 0.7500000000000001100 ) ;
#128 = APPLICATION_CONTEXT ( 'automotive_design' ) ;
#129 = SURFACE_STYLE_FILL_AREA ( #175 ) ;
#130 = PRODUCT_DEFINITION_CONTEXT ( 'detailed design', #24, 'design' ) ;
#131 = UNCERTAINTY_MEASURE_WITH_UNIT (LENGTH_MEASURE( 1.000000000000000100E-005 ), #1, 'distance_accuracy_value', 'NONE');
#132 = ORIENTED_EDGE ( 'NONE', *, *, #38, .F. ) ;
#133 = VERTEX_POINT ( 'NONE', #33 ) ;
#134 = DIRECTION ( 'NONE',  ( 1.000000000000000000, 0.0000000000000000000, 3.491481338843133400E-015 ) ) ;
#135 = ORIENTED_EDGE ( 'NONE', *, *, #18, .F. ) ;
#136 = CARTESIAN_POINT ( 'NONE',  ( 0.0000000000000000000, -0.8399999999999996400, 0.0000000000000000000 ) ) ;
#137 = ORIENTED_EDGE ( 'NONE', *, *, #65, .T. ) ;
#138 = EDGE_LOOP ( 'NONE', ( #156, #168, #42, #49 ) ) ;
#139 = FILL_AREA_STYLE ('',( #160 ) ) ;
#140 = AXIS2_PLACEMENT_3D ( 'NONE', #98, #4, #80 ) ;
#141 = DIRECTION ( 'NONE',  ( 0.0000000000000000000, 0.0000000000000000000, 1.000000000000000000 ) ) ;
#142 = CARTESIAN_POINT ( 'NONE',  ( 0.8400000000000000800, -0.8399999999999997500, 0.0000000000000000000 ) ) ;
#143 = DIMENSIONAL_EXPONENTS ( 1.000000000000000000, 0.0000000000000000000, 0.0000000000000000000, 0.0000000000000000000, 0.0000000000000000000, 0.0000000000000000000, 0.0000000000000000000 ) ;
#144 = STYLED_ITEM ( 'NONE', ( #104 ), #90 ) ;
#145 = CARTESIAN_POINT ( 'NONE',  ( 5.143516556418884400E-017, -0.8400000000000000800, 0.0000000000000000000 ) ) ;
#146 = DIRECTION ( 'NONE',  ( 0.0000000000000000000, 0.0000000000000000000, 1.000000000000000000 ) ) ;
#147 =( CONVERSION_BASED_UNIT ( 'INCH', #35 ) LENGTH_UNIT ( ) NAMED_UNIT ( #93 ) );
#148 = CIRCLE ( 'NONE', #105, 0.7500000000000001100 ) ;
#149 = FACE_OUTER_BOUND ( 'NONE', #180, .T. ) ;
#150 = DIRECTION ( 'NONE',  ( -0.0000000000000000000, 1.000000000000000000, -0.0000000000000000000 ) ) ;
#151 = CIRCLE ( 'NONE', #19, 0.7500000000000001100 ) ;
#152 = CARTESIAN_POINT ( 'NONE',  ( -2.618611004132350000E-015, -0.8399999999999997500, 0.7500000000000001100 ) ) ;
#153 = CIRCLE ( 'NONE', #125, 0.8400000000000000800 ) ;
#154 = PRESENTATION_LAYER_ASSIGNMENT (  '', '', ( #144 ) ) ;
#155 = ADVANCED_FACE ( 'NONE', ( #107 ), #166, .T. ) ;
#156 = ORIENTED_EDGE ( 'NONE', *, *, #97, .T. ) ;
#157 = DIRECTION ( 'NONE',  ( 1.000000000000000000, 0.0000000000000000000, 3.491481338843133400E-015 ) ) ;
#158 =( NAMED_UNIT ( * ) SI_UNIT ( $, .STERADIAN. ) SOLID_ANGLE_UNIT ( ) );
#159 = ORIENTED_EDGE ( 'NONE', *, *, #38, .T. ) ;
#160 = FILL_AREA_STYLE_COLOUR ( '', #103 ) ;
#161 = SURFACE_STYLE_USAGE ( .BOTH. , #25 ) ;
#162 = CIRCLE ( 'NONE', #140, 0.8400000000000000800 ) ;
#163 = VECTOR ( 'NONE', #122, 39.37007874015748100 ) ;
#164 = CARTESIAN_POINT ( 'NONE',  ( 3.284402083903108100E-031, -0.08999999999999999700, -9.406901441413292200E-017 ) ) ;
#165 = DIRECTION ( 'NONE',  ( 0.0000000000000000000, 0.0000000000000000000, 1.000000000000000000 ) ) ;
#166 = SPHERICAL_SURFACE ( 'NONE', #66, 0.8400000000000000800 ) ;
#167 = ADVANCED_FACE ( 'NONE', ( #149 ), #127, .F. ) ;
#168 = ORIENTED_EDGE ( 'NONE', *, *, #59, .T. ) ;
#169 = ORIENTED_EDGE ( 'NONE', *, *, #46, .T. ) ;
#170 = CARTESIAN_POINT ( 'NONE',  ( 0.0000000000000000000, 0.0000000000000000000, 0.0000000000000000000 ) ) ;
#171 =( NAMED_UNIT ( * ) PLANE_ANGLE_UNIT ( ) SI_UNIT ( $, .RADIAN. ) );
#172 = DIRECTION ( 'NONE',  ( -0.0000000000000000000, -0.0000000000000000000, -1.000000000000000000 ) ) ;
#173 = ORIENTED_EDGE ( 'NONE', *, *, #18, .T. ) ;
#174 = DIRECTION ( 'NONE',  ( -0.0000000000000000000, 1.000000000000000000, -0.0000000000000000000 ) ) ;
#175 = FILL_AREA_STYLE ('',( #84 ) ) ;
#176 = LINE ( 'NONE', #152, #163 ) ;
#177 =( NAMED_UNIT ( * ) PLANE_ANGLE_UNIT ( ) SI_UNIT ( $, .RADIAN. ) );
#178 = VECTOR ( 'NONE', #63, 39.37007874015748100 ) ;
#179 = ORIENTED_EDGE ( 'NONE', *, *, #65, .F. ) ;
#180 = EDGE_LOOP ( 'NONE', ( #169, #23, #135 ) ) ;
#181 = MECHANICAL_DESIGN_GEOMETRIC_PRESENTATION_REPRESENTATION (  '', ( #144 ), #3 ) ;
#182 = DIRECTION ( 'NONE',  ( -1.000000000000000000, 0.0000000000000000000, 0.0000000000000000000 ) ) ;
#183 = CARTESIAN_POINT ( 'NONE',  ( 0.0000000000000000000, -0.8399999999999997500, 0.0000000000000000000 ) ) ;
#184 = UNCERTAINTY_MEASURE_WITH_UNIT (LENGTH_MEASURE( 1.000000000000000100E-005 ), #17, 'distance_accuracy_value', 'NONE');
ENDSEC;
END-ISO-10303-21;
