ISO-10303-21;
HEADER;
FILE_DESCRIPTION (( 'STEP AP203' ),
    '1' );
FILE_NAME ('300305.STEP',
    '2017-01-13T00:51:19',
    ( 'temp' ),
    ( '' ),
    'SwSTEP 2.0',
    'SolidWorks 2016',
    '' );
FILE_SCHEMA (( 'CONFIG_CONTROL_DESIGN' ));
ENDSEC;

DATA;
#1 = CARTESIAN_POINT ( 'NONE',  ( -5.237222008264700000E-015, -1.574999999999999700, 1.500000000000000200 ) ) ;
#2 = CC_DESIGN_SECURITY_CLASSIFICATION ( #183, ( #43 ) ) ;
#3 = CALENDAR_DATE ( 2017, 12, 1 ) ;
#4 = CC_DESIGN_APPROVAL ( #70, ( #51 ) ) ;
#5 = CARTESIAN_POINT ( 'NONE',  ( 9.644093543285405500E-017, -1.575000000000000000, 0.0000000000000000000 ) ) ;
#6 = ORIENTED_EDGE ( 'NONE', *, *, #84, .T. ) ;
#7 = CARTESIAN_POINT ( 'NONE',  ( 0.0000000000000000000, 0.0000000000000000000, 0.0000000000000000000 ) ) ;
#8 = AXIS2_PLACEMENT_3D ( 'NONE', #61, #158, #46 ) ;
#9 = LINE ( 'NONE', #184, #148 ) ;
#10 = CLOSED_SHELL ( 'NONE', ( #93, #118, #105, #56, #26 ) ) ;
#11 = ORIENTED_EDGE ( 'NONE', *, *, #84, .F. ) ;
#12 = PERSON_AND_ORGANIZATION_ROLE ( 'classification_officer' ) ;
#13 = PERSON_AND_ORGANIZATION_ROLE ( 'design_owner' ) ;
#14 = ORGANIZATION ( 'UNSPECIFIED', 'UNSPECIFIED', '' ) ;
#15 = DIRECTION ( 'NONE',  ( 0.0000000000000000000, 0.0000000000000000000, 1.000000000000000000 ) ) ;
#16 = CARTESIAN_POINT ( 'NONE',  ( 0.0000000000000000000, -1.574999999999999700, 0.0000000000000000000 ) ) ;
#17 = PERSON_AND_ORGANIZATION ( #74, #14 ) ;
#18 = APPROVAL_DATE_TIME ( #76, #178 ) ;
#19 = DIRECTION ( 'NONE',  ( -1.000000000000000000, 0.0000000000000000000, 0.0000000000000000000 ) ) ;
#20 = PRODUCT_RELATED_PRODUCT_CATEGORY ( 'detail', '', ( #181 ) ) ;
#21 = CIRCLE ( 'NONE', #106, 1.500000000000000200 ) ;
#22 = DIRECTION ( 'NONE',  ( 6.739837425642104400E-030, -1.000000000000000000, -1.930366160248555200E-015 ) ) ;
#23 = COORDINATED_UNIVERSAL_TIME_OFFSET ( 8, 0, .BEHIND. ) ;
#24 = DIRECTION ( 'NONE',  ( 1.000000000000000000, 0.0000000000000000000, 3.491481338843133000E-015 ) ) ;
#25 = ORIENTED_EDGE ( 'NONE', *, *, #160, .F. ) ;
#26 = ADVANCED_FACE ( 'NONE', ( #203 ), #132, .T. ) ;
#27 = COORDINATED_UNIVERSAL_TIME_OFFSET ( 8, 0, .BEHIND. ) ;
#28 = SECURITY_CLASSIFICATION_LEVEL ( 'unclassified' ) ;
#29 = VECTOR ( 'NONE', #159, 39.37007874015748100 ) ;
#30 = FACE_OUTER_BOUND ( 'NONE', #199, .T. ) ;
#31 = DIRECTION ( 'NONE',  ( 1.000000000000000000, 0.0000000000000000000, 0.0000000000000000000 ) ) ;
#32 = CC_DESIGN_PERSON_AND_ORGANIZATION_ASSIGNMENT ( #38, #79, ( #51 ) ) ;
#33 = ADVANCED_BREP_SHAPE_REPRESENTATION ( '300305', ( #48, #131 ), #135 ) ;
#34 = CARTESIAN_POINT ( 'NONE',  ( 0.0000000000000000000, 0.0000000000000000000, 0.0000000000000000000 ) ) ;
#35 = CIRCLE ( 'NONE', #87, 1.575000000000000000 ) ;
#36 = LOCAL_TIME ( 16, 51, 19.00000000000000000, #62 ) ;
#37 = EDGE_CURVE ( 'NONE', #85, #44, #152, .T. ) ;
#38 = PERSON_AND_ORGANIZATION ( #74, #14 ) ;
#39 = ORIENTED_EDGE ( 'NONE', *, *, #77, .T. ) ;
#40 = LOCAL_TIME ( 16, 51, 19.00000000000000000, #114 ) ;
#41 = CARTESIAN_POINT ( 'NONE',  ( -3.367217263643854700E-031, -1.575000000000000000, 9.644093543285405500E-017 ) ) ;
#42 = DIRECTION ( 'NONE',  ( 3.491481338843133000E-015, 0.0000000000000000000, -1.000000000000000000 ) ) ;
#43 = PRODUCT_DEFINITION_FORMATION_WITH_SPECIFIED_SOURCE ( 'ANY', '', #181, .NOT_KNOWN. ) ;
#44 = VERTEX_POINT ( 'NONE', #162 ) ;
#45 = PERSON_AND_ORGANIZATION_ROLE ( 'creator' ) ;
#46 = DIRECTION ( 'NONE',  ( 0.0000000000000000000, 0.0000000000000000000, 1.000000000000000000 ) ) ;
#47 = PLANE ( 'NONE',  #144 ) ;
#48 = MANIFOLD_SOLID_BREP ( 'Revolve1', #10 ) ;
#49 = FACE_OUTER_BOUND ( 'NONE', #186, .T. ) ;
#50 = APPROVAL_PERSON_ORGANIZATION ( #211, #150, #156 ) ;
#51 = PRODUCT_DEFINITION ( 'UNKNOWN', '', #43, #177 ) ;
#52 = DIRECTION ( 'NONE',  ( -1.000000000000000000, 0.0000000000000000000, -3.491481338843133400E-015 ) ) ;
#53 = AXIS2_PLACEMENT_3D ( 'NONE', #102, #103, #90 ) ;
#54 = DIRECTION ( 'NONE',  ( -0.0000000000000000000, -0.0000000000000000000, -1.000000000000000000 ) ) ;
#55 = CIRCLE ( 'NONE', #204, 1.575000000000000000 ) ;
#56 = ADVANCED_FACE ( 'NONE', ( #30 ), #47, .F. ) ;
#57 = EDGE_CURVE ( 'NONE', #44, #179, #9, .T. ) ;
#58 = ORIENTED_EDGE ( 'NONE', *, *, #37, .F. ) ;
#59 = APPROVAL_STATUS ( 'not_yet_approved' ) ;
#60 = FACE_OUTER_BOUND ( 'NONE', #163, .T. ) ;
#61 = CARTESIAN_POINT ( 'NONE',  ( 0.0000000000000000000, -1.574999999999999700, 0.0000000000000000000 ) ) ;
#62 = COORDINATED_UNIVERSAL_TIME_OFFSET ( 8, 0, .BEHIND. ) ;
#63 = CALENDAR_DATE ( 2017, 12, 1 ) ;
#64 = CARTESIAN_POINT ( 'NONE',  ( 5.054878069231570400E-031, -0.07499999999999988600, -1.447774620186414400E-016 ) ) ;
#65 = VECTOR ( 'NONE', #22, 39.37007874015748100 ) ;
#66 = CIRCLE ( 'NONE', #8, 1.500000000000000200 ) ;
#67 = PERSON_AND_ORGANIZATION ( #74, #14 ) ;
#68 = UNCERTAINTY_MEASURE_WITH_UNIT (LENGTH_MEASURE( 1.000000000000000100E-005 ), #193, 'distance_accuracy_value', 'NONE');
#69 = LENGTH_MEASURE_WITH_UNIT ( LENGTH_MEASURE( 0.02539999999999999900 ), #97 );
#70 = APPROVAL ( #96, 'UNSPECIFIED' ) ;
#71 = DIRECTION ( 'NONE',  ( 3.491481338843133000E-015, 0.0000000000000000000, -1.000000000000000000 ) ) ;
#72 = DATE_AND_TIME ( #63, #36 ) ;
#73 = DIRECTION ( 'NONE',  ( -1.000000000000000000, 0.0000000000000000000, -3.491481338843133000E-015 ) ) ;
#74 = PERSON ( 'UNSPECIFIED', 'UNSPECIFIED', 'UNSPECIFIED', ('UNSPECIFIED'), ('UNSPECIFIED'), ('UNSPECIFIED') ) ;
#75 = ORIENTED_EDGE ( 'NONE', *, *, #82, .F. ) ;
#76 = DATE_AND_TIME ( #200, #40 ) ;
#77 = EDGE_CURVE ( 'NONE', #140, #78, #94, .T. ) ;
#78 = VERTEX_POINT ( 'NONE', #7 ) ;
#79 = PERSON_AND_ORGANIZATION_ROLE ( 'creator' ) ;
#80 =( NAMED_UNIT ( * ) PLANE_ANGLE_UNIT ( ) SI_UNIT ( $, .RADIAN. ) );
#81 = CARTESIAN_POINT ( 'NONE',  ( 1.575000000000000000, -1.574999999999999700, 0.0000000000000000000 ) ) ;
#82 = EDGE_CURVE ( 'NONE', #85, #124, #21, .T. ) ;
#83 = LOCAL_TIME ( 16, 51, 19.00000000000000000, #154 ) ;
#84 = EDGE_CURVE ( 'NONE', #78, #85, #123, .T. ) ;
#85 = VERTEX_POINT ( 'NONE', #64 ) ;
#86 = PRODUCT_DEFINITION_SHAPE ( 'NONE', 'NONE',  #51 ) ;
#87 = AXIS2_PLACEMENT_3D ( 'NONE', #16, #111, #213 ) ;
#88 = CARTESIAN_POINT ( 'NONE',  ( -3.367217263643854700E-031, -1.575000000000000000, 9.644093543285405500E-017 ) ) ;
#89 = SPHERICAL_SURFACE ( 'NONE', #180, 1.500000000000000200 ) ;
#90 = DIRECTION ( 'NONE',  ( -3.491481338843133400E-015, 0.0000000000000000000, 1.000000000000000000 ) ) ;
#91 = DATE_AND_TIME ( #3, #161 ) ;
#92 = CC_DESIGN_PERSON_AND_ORGANIZATION_ASSIGNMENT ( #67, #12, ( #183 ) ) ;
#93 = ADVANCED_FACE ( 'NONE', ( #101 ), #147, .T. ) ;
#94 = CIRCLE ( 'NONE', #185, 1.575000000000000000 ) ;
#95 = APPROVAL_ROLE ( '' ) ;
#96 = APPROVAL_STATUS ( 'not_yet_approved' ) ;
#97 =( LENGTH_UNIT ( ) NAMED_UNIT ( * ) SI_UNIT ( $, .METRE. ) );
#98 = DIRECTION ( 'NONE',  ( -0.0000000000000000000, 1.000000000000000000, 0.0000000000000000000 ) ) ;
#99 = DIRECTION ( 'NONE',  ( 0.0000000000000000000, 0.0000000000000000000, 1.000000000000000000 ) ) ;
#100 = ORIENTED_EDGE ( 'NONE', *, *, #37, .T. ) ;
#101 = FACE_OUTER_BOUND ( 'NONE', #108, .T. ) ;
#102 = CARTESIAN_POINT ( 'NONE',  ( -3.367217263643854700E-031, -1.575000000000000000, 9.644093543285405500E-017 ) ) ;
#103 = DIRECTION ( 'NONE',  ( 1.000000000000000000, 0.0000000000000000000, 3.491481338843133400E-015 ) ) ;
#104 = ORIENTED_EDGE ( 'NONE', *, *, #77, .F. ) ;
#105 = ADVANCED_FACE ( 'NONE', ( #60 ), #89, .F. ) ;
#106 = AXIS2_PLACEMENT_3D ( 'NONE', #88, #137, #71 ) ;
#107 = DATE_TIME_ROLE ( 'classification_date' ) ;
#108 = EDGE_LOOP ( 'NONE', ( #170, #113, #104 ) ) ;
#109 = APPLICATION_CONTEXT ( 'configuration controlled 3d designs of mechanical parts and assemblies' ) ;
#110 = DIRECTION ( 'NONE',  ( -1.000000000000000000, 0.0000000000000000000, 0.0000000000000000000 ) ) ;
#111 = DIRECTION ( 'NONE',  ( -0.0000000000000000000, 1.000000000000000000, -0.0000000000000000000 ) ) ;
#112 = PLANE ( 'NONE',  #119 ) ;
#113 = ORIENTED_EDGE ( 'NONE', *, *, #171, .T. ) ;
#114 = COORDINATED_UNIVERSAL_TIME_OFFSET ( 8, 0, .BEHIND. ) ;
#115 = DIRECTION ( 'NONE',  ( -0.0000000000000000000, 0.0000000000000000000, -1.000000000000000000 ) ) ;
#116 = APPROVAL_PERSON_ORGANIZATION ( #145, #70, #191 ) ;
#117 = ORIENTED_EDGE ( 'NONE', *, *, #133, .F. ) ;
#118 = ADVANCED_FACE ( 'NONE', ( #49 ), #112, .F. ) ;
#119 = AXIS2_PLACEMENT_3D ( 'NONE', #125, #98, #99 ) ;
#120 = CARTESIAN_POINT ( 'NONE',  ( -3.367217263643854700E-031, -1.575000000000000000, 9.644093543285405500E-017 ) ) ;
#121 = AXIS2_PLACEMENT_3D ( 'NONE', #168, #54, #153 ) ;
#122 = DIRECTION ( 'NONE',  ( 3.491481338843133000E-015, 0.0000000000000000000, -1.000000000000000000 ) ) ;
#123 = LINE ( 'NONE', #182, #65 ) ;
#124 = VERTEX_POINT ( 'NONE', #149 ) ;
#125 = CARTESIAN_POINT ( 'NONE',  ( -5.237222008264700000E-015, -1.574999999999999700, 1.500000000000000200 ) ) ;
#126 = MECHANICAL_CONTEXT ( 'NONE', #142, 'mechanical' ) ;
#127 = CARTESIAN_POINT ( 'NONE',  ( 9.644093543285405500E-017, -1.575000000000000000, 0.0000000000000000000 ) ) ;
#128 = CC_DESIGN_PERSON_AND_ORGANIZATION_ASSIGNMENT ( #134, #141, ( #43 ) ) ;
#129 = APPROVAL_DATE_TIME ( #196, #150 ) ;
#130 = APPROVAL_PERSON_ORGANIZATION ( #17, #178, #95 ) ;
#131 = AXIS2_PLACEMENT_3D ( 'NONE', #34, #212, #31 ) ;
#132 = PLANE ( 'NONE',  #146 ) ;
#133 = EDGE_CURVE ( 'NONE', #124, #140, #192, .T. ) ;
#134 = PERSON_AND_ORGANIZATION ( #74, #14 ) ;
#135 =( GEOMETRIC_REPRESENTATION_CONTEXT ( 3 ) GLOBAL_UNCERTAINTY_ASSIGNED_CONTEXT ( ( #68 ) ) GLOBAL_UNIT_ASSIGNED_CONTEXT ( ( #193, #80, #175 ) ) REPRESENTATION_CONTEXT ( 'NONE', 'WORKASPACE' ) );
#136 = ORIENTED_EDGE ( 'NONE', *, *, #57, .F. ) ;
#137 = DIRECTION ( 'NONE',  ( 1.000000000000000000, 0.0000000000000000000, 3.491481338843133400E-015 ) ) ;
#138 = EDGE_CURVE ( 'NONE', #140, #179, #35, .T. ) ;
#139 = CC_DESIGN_PERSON_AND_ORGANIZATION_ASSIGNMENT ( #143, #13, ( #181 ) ) ;
#140 = VERTEX_POINT ( 'NONE', #194 ) ;
#141 = PERSON_AND_ORGANIZATION_ROLE ( 'design_supplier' ) ;
#142 = APPLICATION_CONTEXT ( 'configuration controlled 3d designs of mechanical parts and assemblies' ) ;
#143 = PERSON_AND_ORGANIZATION ( #74, #14 ) ;
#144 = AXIS2_PLACEMENT_3D ( 'NONE', #197, #24, #42 ) ;
#145 = PERSON_AND_ORGANIZATION ( #74, #14 ) ;
#146 = AXIS2_PLACEMENT_3D ( 'NONE', #5, #115, #19 ) ;
#147 = SPHERICAL_SURFACE ( 'NONE', #53, 1.575000000000000000 ) ;
#148 = VECTOR ( 'NONE', #151, 39.37007874015748100 ) ;
#149 = CARTESIAN_POINT ( 'NONE',  ( -5.237222008264700000E-015, -1.574999999999999700, 1.500000000000000200 ) ) ;
#150 = APPROVAL ( #59, 'UNSPECIFIED' ) ;
#151 = DIRECTION ( 'NONE',  ( 1.000000000000000000, 0.0000000000000000000, 0.0000000000000000000 ) ) ;
#152 = CIRCLE ( 'NONE', #121, 1.500000000000000200 ) ;
#153 = DIRECTION ( 'NONE',  ( -1.000000000000000000, 0.0000000000000000000, 0.0000000000000000000 ) ) ;
#154 = COORDINATED_UNIVERSAL_TIME_OFFSET ( 8, 0, .BEHIND. ) ;
#155 = APPROVAL_DATE_TIME ( #91, #70 ) ;
#156 = APPROVAL_ROLE ( '' ) ;
#157 = APPLICATION_PROTOCOL_DEFINITION ( 'international standard', 'config_control_design', 1994, #142 ) ;
#158 = DIRECTION ( 'NONE',  ( -0.0000000000000000000, 1.000000000000000000, -0.0000000000000000000 ) ) ;
#159 = DIRECTION ( 'NONE',  ( -3.491481338843133000E-015, 0.0000000000000000000, 1.000000000000000000 ) ) ;
#160 = EDGE_CURVE ( 'NONE', #124, #44, #66, .T. ) ;
#161 = LOCAL_TIME ( 16, 51, 19.00000000000000000, #27 ) ;
#162 = CARTESIAN_POINT ( 'NONE',  ( 1.500000000000000200, -1.574999999999999700, 0.0000000000000000000 ) ) ;
#163 = EDGE_LOOP ( 'NONE', ( #100, #25, #75 ) ) ;
#164 = LOCAL_TIME ( 16, 51, 19.00000000000000000, #23 ) ;
#165 = ORIENTED_EDGE ( 'NONE', *, *, #171, .F. ) ;
#166 = CC_DESIGN_DATE_AND_TIME_ASSIGNMENT ( #72, #107, ( #183 ) ) ;
#167 = CALENDAR_DATE ( 2017, 12, 1 ) ;
#168 = CARTESIAN_POINT ( 'NONE',  ( 9.644093543285405500E-017, -1.575000000000000000, 0.0000000000000000000 ) ) ;
#169 = ORIENTED_EDGE ( 'NONE', *, *, #160, .T. ) ;
#170 = ORIENTED_EDGE ( 'NONE', *, *, #138, .T. ) ;
#171 = EDGE_CURVE ( 'NONE', #179, #78, #55, .T. ) ;
#172 = CALENDAR_DATE ( 2017, 12, 1 ) ;
#173 = EDGE_LOOP ( 'NONE', ( #165, #136, #58, #11 ) ) ;
#174 = DATE_TIME_ROLE ( 'creation_date' ) ;
#175 =( NAMED_UNIT ( * ) SI_UNIT ( $, .STERADIAN. ) SOLID_ANGLE_UNIT ( ) );
#176 = ORIENTED_EDGE ( 'NONE', *, *, #138, .F. ) ;
#177 = DESIGN_CONTEXT ( 'detailed design', #109, 'design' ) ;
#178 = APPROVAL ( #208, 'UNSPECIFIED' ) ;
#179 = VERTEX_POINT ( 'NONE', #81 ) ;
#180 = AXIS2_PLACEMENT_3D ( 'NONE', #41, #73, #122 ) ;
#181 = PRODUCT ( '300305', '300305', '', ( #126 ) ) ;
#182 = CARTESIAN_POINT ( 'NONE',  ( 0.0000000000000000000, 0.0000000000000000000, 0.0000000000000000000 ) ) ;
#183 = SECURITY_CLASSIFICATION ( '', '', #28 ) ;
#184 = CARTESIAN_POINT ( 'NONE',  ( 1.500000000000000200, -1.574999999999999700, 0.0000000000000000000 ) ) ;
#185 = AXIS2_PLACEMENT_3D ( 'NONE', #120, #52, #201 ) ;
#186 = EDGE_LOOP ( 'NONE', ( #169, #207, #176, #117 ) ) ;
#187 = CC_DESIGN_APPROVAL ( #178, ( #183 ) ) ;
#188 = SHAPE_DEFINITION_REPRESENTATION ( #86, #33 ) ;
#189 = ORIENTED_EDGE ( 'NONE', *, *, #133, .T. ) ;
#190 = DATE_AND_TIME ( #172, #164 ) ;
#191 = APPROVAL_ROLE ( '' ) ;
#192 = LINE ( 'NONE', #1, #29 ) ;
#193 =( CONVERSION_BASED_UNIT ( 'INCH', #69 ) LENGTH_UNIT ( ) NAMED_UNIT ( #202 ) );
#194 = CARTESIAN_POINT ( 'NONE',  ( -5.499083108677935000E-015, -1.574999999999999700, 1.575000000000000000 ) ) ;
#195 = ORIENTED_EDGE ( 'NONE', *, *, #82, .T. ) ;
#196 = DATE_AND_TIME ( #167, #83 ) ;
#197 = CARTESIAN_POINT ( 'NONE',  ( -3.367217263643854700E-031, -1.575000000000000000, 9.644093543285405500E-017 ) ) ;
#198 = CC_DESIGN_DATE_AND_TIME_ASSIGNMENT ( #190, #174, ( #51 ) ) ;
#199 = EDGE_LOOP ( 'NONE', ( #39, #6, #195, #189 ) ) ;
#200 = CALENDAR_DATE ( 2017, 12, 1 ) ;
#201 = DIRECTION ( 'NONE',  ( 3.491481338843133400E-015, 0.0000000000000000000, -1.000000000000000000 ) ) ;
#202 = DIMENSIONAL_EXPONENTS ( 1.000000000000000000, 0.0000000000000000000, 0.0000000000000000000, 0.0000000000000000000, 0.0000000000000000000, 0.0000000000000000000, 0.0000000000000000000 ) ;
#203 = FACE_OUTER_BOUND ( 'NONE', #173, .T. ) ;
#204 = AXIS2_PLACEMENT_3D ( 'NONE', #127, #15, #110 ) ;
#205 = PERSON_AND_ORGANIZATION ( #74, #14 ) ;
#206 = CC_DESIGN_APPROVAL ( #150, ( #43 ) ) ;
#207 = ORIENTED_EDGE ( 'NONE', *, *, #57, .T. ) ;
#208 = APPROVAL_STATUS ( 'not_yet_approved' ) ;
#209 = CC_DESIGN_PERSON_AND_ORGANIZATION_ASSIGNMENT ( #205, #45, ( #43 ) ) ;
#210 = APPLICATION_PROTOCOL_DEFINITION ( 'international standard', 'config_control_design', 1994, #109 ) ;
#211 = PERSON_AND_ORGANIZATION ( #74, #14 ) ;
#212 = DIRECTION ( 'NONE',  ( 0.0000000000000000000, 0.0000000000000000000, 1.000000000000000000 ) ) ;
#213 = DIRECTION ( 'NONE',  ( 0.0000000000000000000, 0.0000000000000000000, 1.000000000000000000 ) ) ;
ENDSEC;
END-ISO-10303-21;
