ISO-10303-21;
HEADER;
FILE_DESCRIPTION (( 'STEP AP203' ),
    '1' );
FILE_NAME ('300503.STEP',
    '2017-01-16T23:23:37',
    ( 'temp' ),
    ( '' ),
    'SwSTEP 2.0',
    'SolidWorks 2016',
    '' );
FILE_SCHEMA (( 'CONFIG_CONTROL_DESIGN' ));
ENDSEC;

DATA;
#1 = DIRECTION ( 'NONE',  ( 0.0000000000000000000, 0.0000000000000000000, 1.000000000000000000 ) ) ;
#2 = CC_DESIGN_PERSON_AND_ORGANIZATION_ASSIGNMENT ( #94, #192, ( #111 ) ) ;
#3 = FACE_OUTER_BOUND ( 'NONE', #31, .T. ) ;
#4 = AXIS2_PLACEMENT_3D ( 'NONE', #124, #187, #73 ) ;
#5 = CIRCLE ( 'NONE', #16, 1.500000000000000200 ) ;
#6 = DIRECTION ( 'NONE',  ( -0.0000000000000000000, 1.000000000000000000, -0.0000000000000000000 ) ) ;
#7 = CARTESIAN_POINT ( 'NONE',  ( 9.460396523413304100E-017, -1.545000000000000200, 0.0000000000000000000 ) ) ;
#8 = CIRCLE ( 'NONE', #147, 1.500000000000000200 ) ;
#9 = PERSON_AND_ORGANIZATION_ROLE ( 'design_supplier' ) ;
#10 = CARTESIAN_POINT ( 'NONE',  ( 1.500000000000000200, -1.544999999999999700, 0.0000000000000000000 ) ) ;
#11 = ORIENTED_EDGE ( 'NONE', *, *, #72, .T. ) ;
#12 = DIRECTION ( 'NONE',  ( 1.000000000000000000, 0.0000000000000000000, 3.491481338843133000E-015 ) ) ;
#13 = CARTESIAN_POINT ( 'NONE',  ( -3.303079791955400600E-031, -1.545000000000000200, 9.460396523413304100E-017 ) ) ;
#14 = CC_DESIGN_APPROVAL ( #114, ( #167 ) ) ;
#15 = VERTEX_POINT ( 'NONE', #118 ) ;
#16 = AXIS2_PLACEMENT_3D ( 'NONE', #184, #46, #30 ) ;
#17 = CARTESIAN_POINT ( 'NONE',  ( -3.303079791955400600E-031, -1.545000000000000200, 9.460396523413304100E-017 ) ) ;
#18 = ORIENTED_EDGE ( 'NONE', *, *, #72, .F. ) ;
#19 = EDGE_CURVE ( 'NONE', #128, #97, #8, .T. ) ;
#20 =( NAMED_UNIT ( * ) SI_UNIT ( $, .STERADIAN. ) SOLID_ANGLE_UNIT ( ) );
#21 = DIRECTION ( 'NONE',  ( 1.000000000000000000, 0.0000000000000000000, 3.491481338843133400E-015 ) ) ;
#22 = ORIENTED_EDGE ( 'NONE', *, *, #162, .T. ) ;
#23 = PERSON ( 'UNSPECIFIED', 'UNSPECIFIED', 'UNSPECIFIED', ('UNSPECIFIED'), ('UNSPECIFIED'), ('UNSPECIFIED') ) ;
#24 = CC_DESIGN_SECURITY_CLASSIFICATION ( #156, ( #111 ) ) ;
#25 = PRODUCT_RELATED_PRODUCT_CATEGORY ( 'detail', '', ( #203 ) ) ;
#26 = LENGTH_MEASURE_WITH_UNIT ( LENGTH_MEASURE( 0.02539999999999999900 ), #191 );
#27 = CARTESIAN_POINT ( 'NONE',  ( -3.303079791955400600E-031, -1.545000000000000200, 9.460396523413304100E-017 ) ) ;
#28 = PLANE ( 'NONE',  #175 ) ;
#29 = ORIENTED_EDGE ( 'NONE', *, *, #44, .T. ) ;
#30 = DIRECTION ( 'NONE',  ( 3.491481338843133000E-015, 0.0000000000000000000, -1.000000000000000000 ) ) ;
#31 = EDGE_LOOP ( 'NONE', ( #121, #143, #49, #103 ) ) ;
#32 = APPROVAL_ROLE ( '' ) ;
#33 = PERSON_AND_ORGANIZATION ( #23, #96 ) ;
#34 = VECTOR ( 'NONE', #207, 39.37007874015748100 ) ;
#35 = DIRECTION ( 'NONE',  ( 0.0000000000000000000, 0.0000000000000000000, 1.000000000000000000 ) ) ;
#36 = EDGE_CURVE ( 'NONE', #77, #128, #5, .T. ) ;
#37 = ORIENTED_EDGE ( 'NONE', *, *, #154, .F. ) ;
#38 = AXIS2_PLACEMENT_3D ( 'NONE', #93, #195, #176 ) ;
#39 = DATE_TIME_ROLE ( 'classification_date' ) ;
#40 = APPROVAL_PERSON_ORGANIZATION ( #33, #164, #32 ) ;
#41 = SHAPE_DEFINITION_REPRESENTATION ( #74, #42 ) ;
#42 = ADVANCED_BREP_SHAPE_REPRESENTATION ( '300503', ( #182, #168 ), #165 ) ;
#43 = CARTESIAN_POINT ( 'NONE',  ( -5.237222008264700000E-015, -1.544999999999999700, 1.500000000000000200 ) ) ;
#44 = EDGE_CURVE ( 'NONE', #15, #136, #211, .T. ) ;
#45 = CC_DESIGN_DATE_AND_TIME_ASSIGNMENT ( #129, #39, ( #156 ) ) ;
#46 = DIRECTION ( 'NONE',  ( 1.000000000000000000, 0.0000000000000000000, 3.491481338843133400E-015 ) ) ;
#47 = LINE ( 'NONE', #198, #34 ) ;
#48 = ORIENTED_EDGE ( 'NONE', *, *, #179, .F. ) ;
#49 = ORIENTED_EDGE ( 'NONE', *, *, #44, .F. ) ;
#50 = APPROVAL ( #81, 'UNSPECIFIED' ) ;
#51 = CARTESIAN_POINT ( 'NONE',  ( 5.119015540920024600E-031, -0.04499999999999992900, -1.466144322173624500E-016 ) ) ;
#52 = PERSON_AND_ORGANIZATION ( #23, #96 ) ;
#53 = ORIENTED_EDGE ( 'NONE', *, *, #36, .F. ) ;
#54 = CALENDAR_DATE ( 2017, 16, 1 ) ;
#55 = CLOSED_SHELL ( 'NONE', ( #186, #127, #153, #125, #70 ) ) ;
#56 = APPLICATION_PROTOCOL_DEFINITION ( 'international standard', 'config_control_design', 1994, #141 ) ;
#57 = CARTESIAN_POINT ( 'NONE',  ( 9.460396523413304100E-017, -1.545000000000000200, 0.0000000000000000000 ) ) ;
#58 = DATE_AND_TIME ( #54, #66 ) ;
#59 = ORIENTED_EDGE ( 'NONE', *, *, #19, .F. ) ;
#60 = AXIS2_PLACEMENT_3D ( 'NONE', #138, #206, #117 ) ;
#61 = PLANE ( 'NONE',  #202 ) ;
#62 = DIRECTION ( 'NONE',  ( 0.0000000000000000000, 0.0000000000000000000, 1.000000000000000000 ) ) ;
#63 = APPLICATION_CONTEXT ( 'configuration controlled 3d designs of mechanical parts and assemblies' ) ;
#64 = DIRECTION ( 'NONE',  ( 1.137559009093340600E-029, -1.000000000000000000, -3.258098493719170800E-015 ) ) ;
#65 = CC_DESIGN_DATE_AND_TIME_ASSIGNMENT ( #58, #106, ( #167 ) ) ;
#66 = LOCAL_TIME ( 15, 23, 37.00000000000000000, #75 ) ;
#67 = ORIENTED_EDGE ( 'NONE', *, *, #162, .F. ) ;
#68 = DIRECTION ( 'NONE',  ( 3.491481338843133000E-015, 0.0000000000000000000, -1.000000000000000000 ) ) ;
#69 = LOCAL_TIME ( 15, 23, 37.00000000000000000, #158 ) ;
#70 = ADVANCED_FACE ( 'NONE', ( #205 ), #28, .T. ) ;
#71 = CALENDAR_DATE ( 2017, 16, 1 ) ;
#72 = EDGE_CURVE ( 'NONE', #136, #151, #200, .T. ) ;
#73 = DIRECTION ( 'NONE',  ( -1.000000000000000000, 0.0000000000000000000, 0.0000000000000000000 ) ) ;
#74 = PRODUCT_DEFINITION_SHAPE ( 'NONE', 'NONE',  #167 ) ;
#75 = COORDINATED_UNIVERSAL_TIME_OFFSET ( 8, 0, .BEHIND. ) ;
#76 = ORIENTED_EDGE ( 'NONE', *, *, #208, .T. ) ;
#77 = VERTEX_POINT ( 'NONE', #51 ) ;
#78 = DATE_AND_TIME ( #71, #69 ) ;
#79 = CC_DESIGN_PERSON_AND_ORGANIZATION_ASSIGNMENT ( #204, #196, ( #203 ) ) ;
#80 = CARTESIAN_POINT ( 'NONE',  ( 0.0000000000000000000, 0.0000000000000000000, 0.0000000000000000000 ) ) ;
#81 = APPROVAL_STATUS ( 'not_yet_approved' ) ;
#82 = DATE_AND_TIME ( #95, #100 ) ;
#83 = DIRECTION ( 'NONE',  ( -0.0000000000000000000, 0.0000000000000000000, -1.000000000000000000 ) ) ;
#84 = FACE_OUTER_BOUND ( 'NONE', #139, .T. ) ;
#85 = PLANE ( 'NONE',  #161 ) ;
#86 = PERSON_AND_ORGANIZATION_ROLE ( 'creator' ) ;
#87 = EDGE_LOOP ( 'NONE', ( #29, #11, #67 ) ) ;
#88 = APPROVAL_DATE_TIME ( #78, #164 ) ;
#89 = EDGE_CURVE ( 'NONE', #97, #136, #193, .T. ) ;
#90 = APPROVAL_DATE_TIME ( #82, #114 ) ;
#91 = DIRECTION ( 'NONE',  ( 3.491481338843133000E-015, 0.0000000000000000000, -1.000000000000000000 ) ) ;
#92 = ORIENTED_EDGE ( 'NONE', *, *, #179, .T. ) ;
#93 = CARTESIAN_POINT ( 'NONE',  ( -3.303079791955400600E-031, -1.545000000000000200, 9.460396523413304100E-017 ) ) ;
#94 = PERSON_AND_ORGANIZATION ( #23, #96 ) ;
#95 = CALENDAR_DATE ( 2017, 16, 1 ) ;
#96 = ORGANIZATION ( 'UNSPECIFIED', 'UNSPECIFIED', '' ) ;
#97 = VERTEX_POINT ( 'NONE', #155 ) ;
#98 = PERSON_AND_ORGANIZATION ( #23, #96 ) ;
#99 = AXIS2_PLACEMENT_3D ( 'NONE', #7, #122, #212 ) ;
#100 = LOCAL_TIME ( 15, 23, 37.00000000000000000, #120 ) ;
#101 = SPHERICAL_SURFACE ( 'NONE', #213, 1.545000000000000200 ) ;
#102 = APPROVAL_STATUS ( 'not_yet_approved' ) ;
#103 = ORIENTED_EDGE ( 'NONE', *, *, #208, .F. ) ;
#104 = PERSON_AND_ORGANIZATION ( #23, #96 ) ;
#105 = EDGE_LOOP ( 'NONE', ( #18, #131, #37, #48 ) ) ;
#106 = DATE_TIME_ROLE ( 'creation_date' ) ;
#107 = COORDINATED_UNIVERSAL_TIME_OFFSET ( 8, 0, .BEHIND. ) ;
#108 = DIRECTION ( 'NONE',  ( -1.000000000000000000, 0.0000000000000000000, 0.0000000000000000000 ) ) ;
#109 =( CONVERSION_BASED_UNIT ( 'INCH', #26 ) LENGTH_UNIT ( ) NAMED_UNIT ( #181 ) );
#110 = APPLICATION_PROTOCOL_DEFINITION ( 'international standard', 'config_control_design', 1994, #63 ) ;
#111 = PRODUCT_DEFINITION_FORMATION_WITH_SPECIFIED_SOURCE ( 'ANY', '', #203, .NOT_KNOWN. ) ;
#112 = VECTOR ( 'NONE', #64, 39.37007874015748100 ) ;
#113 = DIRECTION ( 'NONE',  ( 1.000000000000000000, 0.0000000000000000000, 0.0000000000000000000 ) ) ;
#114 = APPROVAL ( #170, 'UNSPECIFIED' ) ;
#115 = ORIENTED_EDGE ( 'NONE', *, *, #154, .T. ) ;
#116 = LOCAL_TIME ( 15, 23, 37.00000000000000000, #107 ) ;
#117 = DIRECTION ( 'NONE',  ( 0.0000000000000000000, 0.0000000000000000000, 1.000000000000000000 ) ) ;
#118 = CARTESIAN_POINT ( 'NONE',  ( -5.394338668512640100E-015, -1.544999999999999700, 1.544999999999999700 ) ) ;
#119 = CARTESIAN_POINT ( 'NONE',  ( -5.237222008264700000E-015, -1.544999999999999700, 1.500000000000000200 ) ) ;
#120 = COORDINATED_UNIVERSAL_TIME_OFFSET ( 8, 0, .BEHIND. ) ;
#121 = ORIENTED_EDGE ( 'NONE', *, *, #19, .T. ) ;
#122 = DIRECTION ( 'NONE',  ( -0.0000000000000000000, -0.0000000000000000000, -1.000000000000000000 ) ) ;
#123 = CALENDAR_DATE ( 2017, 16, 1 ) ;
#124 = CARTESIAN_POINT ( 'NONE',  ( 9.460396523413304100E-017, -1.545000000000000200, 0.0000000000000000000 ) ) ;
#125 = ADVANCED_FACE ( 'NONE', ( #185 ), #61, .F. ) ;
#126 = APPROVAL_PERSON_ORGANIZATION ( #199, #114, #142 ) ;
#127 = ADVANCED_FACE ( 'NONE', ( #3 ), #85, .F. ) ;
#128 = VERTEX_POINT ( 'NONE', #43 ) ;
#129 = DATE_AND_TIME ( #123, #116 ) ;
#130 = CARTESIAN_POINT ( 'NONE',  ( 1.544999999999999700, -1.544999999999999700, 0.0000000000000000000 ) ) ;
#131 = ORIENTED_EDGE ( 'NONE', *, *, #89, .F. ) ;
#132 = PERSON_AND_ORGANIZATION ( #23, #96 ) ;
#133 = DESIGN_CONTEXT ( 'detailed design', #63, 'design' ) ;
#134 = MECHANICAL_CONTEXT ( 'NONE', #141, 'mechanical' ) ;
#135 = CC_DESIGN_PERSON_AND_ORGANIZATION_ASSIGNMENT ( #52, #86, ( #167 ) ) ;
#136 = VERTEX_POINT ( 'NONE', #130 ) ;
#137 = APPROVAL_PERSON_ORGANIZATION ( #132, #50, #178 ) ;
#138 = CARTESIAN_POINT ( 'NONE',  ( 0.0000000000000000000, -1.544999999999999700, 0.0000000000000000000 ) ) ;
#139 = EDGE_LOOP ( 'NONE', ( #115, #59, #53 ) ) ;
#140 = COORDINATED_UNIVERSAL_TIME_OFFSET ( 8, 0, .BEHIND. ) ;
#141 = APPLICATION_CONTEXT ( 'configuration controlled 3d designs of mechanical parts and assemblies' ) ;
#142 = APPROVAL_ROLE ( '' ) ;
#143 = ORIENTED_EDGE ( 'NONE', *, *, #89, .T. ) ;
#144 = LOCAL_TIME ( 15, 23, 37.00000000000000000, #140 ) ;
#145 = UNCERTAINTY_MEASURE_WITH_UNIT (LENGTH_MEASURE( 1.000000000000000100E-005 ), #109, 'distance_accuracy_value', 'NONE');
#146 = EDGE_LOOP ( 'NONE', ( #22, #92, #157, #76 ) ) ;
#147 = AXIS2_PLACEMENT_3D ( 'NONE', #172, #6, #62 ) ;
#148 =( NAMED_UNIT ( * ) PLANE_ANGLE_UNIT ( ) SI_UNIT ( $, .RADIAN. ) );
#149 = CALENDAR_DATE ( 2017, 16, 1 ) ;
#150 = DIRECTION ( 'NONE',  ( -0.0000000000000000000, 1.000000000000000000, 0.0000000000000000000 ) ) ;
#151 = VERTEX_POINT ( 'NONE', #159 ) ;
#152 = DATE_AND_TIME ( #149, #144 ) ;
#153 = ADVANCED_FACE ( 'NONE', ( #84 ), #189, .F. ) ;
#154 = EDGE_CURVE ( 'NONE', #77, #97, #169, .T. ) ;
#155 = CARTESIAN_POINT ( 'NONE',  ( 1.500000000000000200, -1.544999999999999700, 0.0000000000000000000 ) ) ;
#156 = SECURITY_CLASSIFICATION ( '', '', #209 ) ;
#157 = ORIENTED_EDGE ( 'NONE', *, *, #36, .T. ) ;
#158 = COORDINATED_UNIVERSAL_TIME_OFFSET ( 8, 0, .BEHIND. ) ;
#159 = CARTESIAN_POINT ( 'NONE',  ( 0.0000000000000000000, 0.0000000000000000000, 0.0000000000000000000 ) ) ;
#160 = CC_DESIGN_PERSON_AND_ORGANIZATION_ASSIGNMENT ( #98, #9, ( #111 ) ) ;
#161 = AXIS2_PLACEMENT_3D ( 'NONE', #119, #150, #35 ) ;
#162 = EDGE_CURVE ( 'NONE', #15, #151, #174, .T. ) ;
#163 = LINE ( 'NONE', #80, #112 ) ;
#164 = APPROVAL ( #102, 'UNSPECIFIED' ) ;
#165 =( GEOMETRIC_REPRESENTATION_CONTEXT ( 3 ) GLOBAL_UNCERTAINTY_ASSIGNED_CONTEXT ( ( #145 ) ) GLOBAL_UNIT_ASSIGNED_CONTEXT ( ( #109, #148, #20 ) ) REPRESENTATION_CONTEXT ( 'NONE', 'WORKASPACE' ) );
#166 = FACE_OUTER_BOUND ( 'NONE', #87, .T. ) ;
#167 = PRODUCT_DEFINITION ( 'UNKNOWN', '', #111, #133 ) ;
#168 = AXIS2_PLACEMENT_3D ( 'NONE', #194, #1, #190 ) ;
#169 = CIRCLE ( 'NONE', #99, 1.500000000000000200 ) ;
#170 = APPROVAL_STATUS ( 'not_yet_approved' ) ;
#171 = CC_DESIGN_APPROVAL ( #164, ( #111 ) ) ;
#172 = CARTESIAN_POINT ( 'NONE',  ( 0.0000000000000000000, -1.544999999999999700, 0.0000000000000000000 ) ) ;
#173 = PERSON_AND_ORGANIZATION_ROLE ( 'classification_officer' ) ;
#174 = CIRCLE ( 'NONE', #38, 1.545000000000000200 ) ;
#175 = AXIS2_PLACEMENT_3D ( 'NONE', #57, #83, #108 ) ;
#176 = DIRECTION ( 'NONE',  ( 3.491481338843133000E-015, 0.0000000000000000000, -1.000000000000000000 ) ) ;
#177 = DIRECTION ( 'NONE',  ( -3.491481338843133400E-015, 0.0000000000000000000, 1.000000000000000000 ) ) ;
#178 = APPROVAL_ROLE ( '' ) ;
#179 = EDGE_CURVE ( 'NONE', #151, #77, #163, .T. ) ;
#180 = VECTOR ( 'NONE', #113, 39.37007874015748100 ) ;
#181 = DIMENSIONAL_EXPONENTS ( 1.000000000000000000, 0.0000000000000000000, 0.0000000000000000000, 0.0000000000000000000, 0.0000000000000000000, 0.0000000000000000000, 0.0000000000000000000 ) ;
#182 = MANIFOLD_SOLID_BREP ( 'Revolve1', #55 ) ;
#183 = CC_DESIGN_PERSON_AND_ORGANIZATION_ASSIGNMENT ( #104, #173, ( #156 ) ) ;
#184 = CARTESIAN_POINT ( 'NONE',  ( -3.303079791955400600E-031, -1.545000000000000200, 9.460396523413304100E-017 ) ) ;
#185 = FACE_OUTER_BOUND ( 'NONE', #146, .T. ) ;
#186 = ADVANCED_FACE ( 'NONE', ( #166 ), #101, .T. ) ;
#187 = DIRECTION ( 'NONE',  ( 0.0000000000000000000, 0.0000000000000000000, 1.000000000000000000 ) ) ;
#188 = AXIS2_PLACEMENT_3D ( 'NONE', #27, #197, #68 ) ;
#189 = SPHERICAL_SURFACE ( 'NONE', #188, 1.500000000000000200 ) ;
#190 = DIRECTION ( 'NONE',  ( 1.000000000000000000, 0.0000000000000000000, 0.0000000000000000000 ) ) ;
#191 =( LENGTH_UNIT ( ) NAMED_UNIT ( * ) SI_UNIT ( $, .METRE. ) );
#192 = PERSON_AND_ORGANIZATION_ROLE ( 'creator' ) ;
#193 = LINE ( 'NONE', #10, #180 ) ;
#194 = CARTESIAN_POINT ( 'NONE',  ( 0.0000000000000000000, 0.0000000000000000000, 0.0000000000000000000 ) ) ;
#195 = DIRECTION ( 'NONE',  ( -1.000000000000000000, 0.0000000000000000000, -3.491481338843133400E-015 ) ) ;
#196 = PERSON_AND_ORGANIZATION_ROLE ( 'design_owner' ) ;
#197 = DIRECTION ( 'NONE',  ( -1.000000000000000000, 0.0000000000000000000, -3.491481338843133000E-015 ) ) ;
#198 = CARTESIAN_POINT ( 'NONE',  ( -5.237222008264700000E-015, -1.544999999999999700, 1.500000000000000200 ) ) ;
#199 = PERSON_AND_ORGANIZATION ( #23, #96 ) ;
#200 = CIRCLE ( 'NONE', #4, 1.545000000000000200 ) ;
#201 = APPROVAL_DATE_TIME ( #152, #50 ) ;
#202 = AXIS2_PLACEMENT_3D ( 'NONE', #17, #12, #91 ) ;
#203 = PRODUCT ( '300503', '300503', '', ( #134 ) ) ;
#204 = PERSON_AND_ORGANIZATION ( #23, #96 ) ;
#205 = FACE_OUTER_BOUND ( 'NONE', #105, .T. ) ;
#206 = DIRECTION ( 'NONE',  ( -0.0000000000000000000, 1.000000000000000000, -0.0000000000000000000 ) ) ;
#207 = DIRECTION ( 'NONE',  ( -3.491481338843133000E-015, 0.0000000000000000000, 1.000000000000000000 ) ) ;
#208 = EDGE_CURVE ( 'NONE', #128, #15, #47, .T. ) ;
#209 = SECURITY_CLASSIFICATION_LEVEL ( 'unclassified' ) ;
#210 = CC_DESIGN_APPROVAL ( #50, ( #156 ) ) ;
#211 = CIRCLE ( 'NONE', #60, 1.544999999999999700 ) ;
#212 = DIRECTION ( 'NONE',  ( -1.000000000000000000, 0.0000000000000000000, 0.0000000000000000000 ) ) ;
#213 = AXIS2_PLACEMENT_3D ( 'NONE', #13, #21, #177 ) ;
ENDSEC;
END-ISO-10303-21;
