ISO-10303-21;
HEADER;
FILE_DESCRIPTION (( 'STEP AP203' ),
    '1' );
FILE_NAME ('400404.STEP',
    '2024-01-21T18:08:53',
    ( '' ),
    ( '' ),
    'SwSTEP 2.0',
    'SolidWorks 2021',
    '' );
FILE_SCHEMA (( 'CONFIG_CONTROL_DESIGN' ));
ENDSEC;

DATA;
#1 = DIRECTION ( 'NONE',  ( 0.7071067811865486830, 1.326139802749642207E-16, 0.7071067811865462405 ) ) ;
#2 = FACE_OUTER_BOUND ( 'NONE', #117, .T. ) ;
#3 = CARTESIAN_POINT ( 'NONE',  ( -2.731847993664263218E-16, 0.6457864376269036866, -1.414213562373092481 ) ) ;
#4 = AXIS2_PLACEMENT_3D ( 'NONE', #124, #42, #22 ) ;
#5 = DIRECTION ( 'NONE',  ( 0.7071067811865463515, -2.897562362236303384E-16, 0.7071067811865486830 ) ) ;
#6 = EDGE_CURVE ( 'NONE', #85, #94, #83, .T. ) ;
#7 = APPROVAL_DATE_TIME ( #163, #19 ) ;
#8 = APPLICATION_PROTOCOL_DEFINITION ( 'international standard', 'config_control_design', 1994, #24 ) ;
#9 = AXIS2_PLACEMENT_3D ( 'NONE', #200, #59, #103 ) ;
#10 = DIRECTION ( 'NONE',  ( 0.000000000000000000, -3.978419408248925883E-16, 1.000000000000000000 ) ) ;
#11 = ORIENTED_EDGE ( 'NONE', *, *, #188, .F. ) ;
#12 = ORIENTED_EDGE ( 'NONE', *, *, #207, .T. ) ;
#13 = ORIENTED_EDGE ( 'NONE', *, *, #50, .F. ) ;
#14 = ADVANCED_FACE ( 'NONE', ( #209 ), #67, .T. ) ;
#15 = CARTESIAN_POINT ( 'NONE',  ( 0.000000000000000000, -1.414213562373096256, -1.414213562373093369 ) ) ;
#16 = CIRCLE ( 'NONE', #4, 2.000000000000000000 ) ;
#17 = DIRECTION ( 'NONE',  ( -0.000000000000000000, 1.000000000000000000, 4.097771990496395814E-16 ) ) ;
#18 = DIRECTION ( 'NONE',  ( -0.7071067811865486830, 1.326139802749642207E-16, 0.7071067811865462405 ) ) ;
#19 = APPROVAL ( #187, 'UNSPECIFIED' ) ;
#20 = DIRECTION ( 'NONE',  ( -0.7071067811865486830, 1.200209628260102537E-16, 0.7071067811865462405 ) ) ;
#21 = PRODUCT_DEFINITION_FORMATION_WITH_SPECIFIED_SOURCE ( 'ANY', '', #34, .NOT_KNOWN. ) ;
#22 = DIRECTION ( 'NONE',  ( -0.7071067811865487940, 1.365923996832131609E-16, 0.7071067811865463515 ) ) ;
#23 = ADVANCED_FACE ( 'NONE', ( #211 ), #198, .F. ) ;
#24 = APPLICATION_CONTEXT ( 'configuration controlled 3d designs of mechanical parts and assemblies' ) ;
#25 = DIMENSIONAL_EXPONENTS ( 1.000000000000000000, 0.000000000000000000, 0.000000000000000000, 0.000000000000000000, 0.000000000000000000, 0.000000000000000000, 0.000000000000000000 ) ;
#26 = DATE_TIME_ROLE ( 'creation_date' ) ;
#27 = AXIS2_PLACEMENT_3D ( 'NONE', #105, #156, #18 ) ;
#28 = DIRECTION ( 'NONE',  ( 1.000000000000000000, 0.000000000000000000, 0.000000000000000000 ) ) ;
#29 = ADVANCED_FACE ( 'NONE', ( #56 ), #72, .F. ) ;
#30 = PERSON_AND_ORGANIZATION_ROLE ( 'classification_officer' ) ;
#31 = ORIENTED_EDGE ( 'NONE', *, *, #6, .F. ) ;
#32 = CC_DESIGN_APPROVAL ( #172, ( #21 ) ) ;
#33 = ORIENTED_EDGE ( 'NONE', *, *, #115, .F. ) ;
#34 = PRODUCT ( '400404', '400404', '', ( #64 ) ) ;
#35 = SHAPE_DEFINITION_REPRESENTATION ( #99, #47 ) ;
#36 = AXIS2_PLACEMENT_3D ( 'NONE', #158, #5, #185 ) ;
#37 = PERSON ( 'UNSPECIFIED', 'UNSPECIFIED', 'UNSPECIFIED', ('UNSPECIFIED'), ('UNSPECIFIED'), ('UNSPECIFIED') ) ;
#38 = DIRECTION ( 'NONE',  ( 0.7071067811865463515, 2.897562362236303384E-16, -0.7071067811865487940 ) ) ;
#39 = DIRECTION ( 'NONE',  ( 0.000000000000000000, -4.097771990496393842E-16, 1.000000000000000000 ) ) ;
#40 = LINE ( 'NONE', #169, #101 ) ;
#41 = DIRECTION ( 'NONE',  ( -0.7071067811865486830, -4.673100952266434431E-15, -0.7071067811865462405 ) ) ;
#42 = DIRECTION ( 'NONE',  ( -0.7071067811865463515, 2.897562362236303877E-16, -0.7071067811865487940 ) ) ;
#43 = COORDINATED_UNIVERSAL_TIME_OFFSET ( 8, 0, .BEHIND. ) ;
#44 = PERSON_AND_ORGANIZATION ( #37, #48 ) ;
#45 = PERSON_AND_ORGANIZATION ( #37, #48 ) ;
#46 = DIRECTION ( 'NONE',  ( 0.000000000000000000, 0.000000000000000000, 1.000000000000000000 ) ) ;
#47 = ADVANCED_BREP_SHAPE_REPRESENTATION ( '400404', ( #145, #147 ), #179 ) ;
#48 = ORGANIZATION ( 'UNSPECIFIED', 'UNSPECIFIED', '' ) ;
#49 = COORDINATED_UNIVERSAL_TIME_OFFSET ( 8, 0, .BEHIND. ) ;
#50 = EDGE_CURVE ( 'NONE', #94, #154, #61, .T. ) ;
#51 = VECTOR ( 'NONE', #140, 39.37007874015748854 ) ;
#52 = CALENDAR_DATE ( 2024, 21, 1 ) ;
#53 = EDGE_LOOP ( 'NONE', ( #54, #208, #196, #100 ) ) ;
#54 = ORIENTED_EDGE ( 'NONE', *, *, #178, .T. ) ;
#55 = VERTEX_POINT ( 'NONE', #87 ) ;
#56 = FACE_OUTER_BOUND ( 'NONE', #53, .T. ) ;
#57 = PRODUCT_DEFINITION ( 'UNKNOWN', '', #21, #120 ) ;
#58 = LOCAL_TIME ( 10, 8, 53.00000000000000000, #49 ) ;
#59 = DIRECTION ( 'NONE',  ( 0.7071067811865462405, -2.897562362236303877E-16, 0.7071067811865487940 ) ) ;
#60 = DIRECTION ( 'NONE',  ( 0.000000000000000000, -1.000000000000000000, -4.097771990496395814E-16 ) ) ;
#61 = LINE ( 'NONE', #184, #159 ) ;
#62 = PERSON_AND_ORGANIZATION ( #37, #48 ) ;
#63 = PERSON_AND_ORGANIZATION ( #37, #48 ) ;
#64 = MECHANICAL_CONTEXT ( 'NONE', #24, 'mechanical' ) ;
#65 = APPROVAL_PERSON_ORGANIZATION ( #93, #19, #111 ) ;
#66 = APPROVAL_PERSON_ORGANIZATION ( #45, #102, #174 ) ;
#67 = SPHERICAL_SURFACE ( 'NONE', #36, 2.060000000000000053 ) ;
#68 = LOCAL_TIME ( 10, 8, 53.00000000000000000, #78 ) ;
#69 = LINE ( 'NONE', #71, #51 ) ;
#70 = PLANE ( 'NONE',  #143 ) ;
#71 = CARTESIAN_POINT ( 'NONE',  ( -1.414213562373097810, -1.414213562373091815, -5.463695987328526437E-16 ) ) ;
#72 = PLANE ( 'NONE',  #138 ) ;
#73 = DATE_AND_TIME ( #205, #113 ) ;
#74 = CIRCLE ( 'NONE', #194, 2.000000000000000000 ) ;
#75 = CC_DESIGN_DATE_AND_TIME_ASSIGNMENT ( #173, #161, ( #84 ) ) ;
#76 = APPROVAL_STATUS ( 'not_yet_approved' ) ;
#77 =( NAMED_UNIT ( * ) SI_UNIT ( $, .STERADIAN. ) SOLID_ANGLE_UNIT ( ) );
#78 = COORDINATED_UNIVERSAL_TIME_OFFSET ( 8, 0, .BEHIND. ) ;
#79 = LOCAL_TIME ( 10, 8, 53.00000000000000000, #149 ) ;
#80 = CC_DESIGN_PERSON_AND_ORGANIZATION_ASSIGNMENT ( #63, #176, ( #21 ) ) ;
#81 = ORIENTED_EDGE ( 'NONE', *, *, #207, .F. ) ;
#82 = CARTESIAN_POINT ( 'NONE',  ( 0.000000000000000000, -1.414213562373091371, -1.414213562373093369 ) ) ;
#83 = CIRCLE ( 'NONE', #131, 2.060000000000000497 ) ;
#84 = SECURITY_CLASSIFICATION ( '', '', #129 ) ;
#85 = VERTEX_POINT ( 'NONE', #168 ) ;
#86 = CARTESIAN_POINT ( 'NONE',  ( 0.000000000000000000, -1.414213562373096256, -1.414213562373093369 ) ) ;
#87 = CARTESIAN_POINT ( 'NONE',  ( 0.000000000000000000, 0.5857864376269035223, -1.414213562373092703 ) ) ;
#88 = DIRECTION ( 'NONE',  ( -2.929757499594489364E-15, 1.000000000000000000, 3.339534698644118493E-15 ) ) ;
#89 = APPROVAL_PERSON_ORGANIZATION ( #134, #172, #203 ) ;
#90 = EDGE_CURVE ( 'NONE', #118, #154, #126, .T. ) ;
#91 = PERSON_AND_ORGANIZATION_ROLE ( 'design_supplier' ) ;
#92 = AXIS2_PLACEMENT_3D ( 'NONE', #15, #180, #20 ) ;
#93 = PERSON_AND_ORGANIZATION ( #37, #48 ) ;
#94 = VERTEX_POINT ( 'NONE', #106 ) ;
#95 =( CONVERSION_BASED_UNIT ( 'INCH', #108 ) LENGTH_UNIT ( ) NAMED_UNIT ( #25 ) );
#96 = ADVANCED_FACE ( 'NONE', ( #171 ), #157, .T. ) ;
#97 = ORIENTED_EDGE ( 'NONE', *, *, #90, .F. ) ;
#98 = ORIENTED_EDGE ( 'NONE', *, *, #115, .T. ) ;
#99 = PRODUCT_DEFINITION_SHAPE ( 'NONE', 'NONE',  #57 ) ;
#100 = ORIENTED_EDGE ( 'NONE', *, *, #50, .T. ) ;
#101 = VECTOR ( 'NONE', #88, 39.37007874015748143 ) ;
#102 = APPROVAL ( #110, 'UNSPECIFIED' ) ;
#103 = DIRECTION ( 'NONE',  ( -0.7071067811865486830, -2.731847993664262725E-16, 0.7071067811865462405 ) ) ;
#104 = CARTESIAN_POINT ( 'NONE',  ( 0.000000000000000000, -1.414213562373096256, -1.414213562373093369 ) ) ;
#105 = CARTESIAN_POINT ( 'NONE',  ( 0.000000000000000000, -1.414213562373096256, -1.414213562373093369 ) ) ;
#106 = CARTESIAN_POINT ( 'NONE',  ( 1.456639969244290844, -1.414213562373091815, 0.04242640687119232645 ) ) ;
#107 = CC_DESIGN_PERSON_AND_ORGANIZATION_ASSIGNMENT ( #186, #189, ( #57 ) ) ;
#108 = LENGTH_MEASURE_WITH_UNIT ( LENGTH_MEASURE( 0.02539999999999999897 ), #190 );
#109 = CALENDAR_DATE ( 2024, 21, 1 ) ;
#110 = APPROVAL_STATUS ( 'not_yet_approved' ) ;
#111 = APPROVAL_ROLE ( '' ) ;
#112 = DATE_AND_TIME ( #206, #68 ) ;
#113 = LOCAL_TIME ( 10, 8, 53.00000000000000000, #151 ) ;
#114 = ORIENTED_EDGE ( 'NONE', *, *, #90, .T. ) ;
#115 = EDGE_CURVE ( 'NONE', #116, #85, #210, .T. ) ;
#116 = VERTEX_POINT ( 'NONE', #3 ) ;
#117 = EDGE_LOOP ( 'NONE', ( #31, #167, #114, #13 ) ) ;
#118 = VERTEX_POINT ( 'NONE', #213 ) ;
#119 = ORIENTED_EDGE ( 'NONE', *, *, #178, .F. ) ;
#120 = DESIGN_CONTEXT ( 'detailed design', #128, 'design' ) ;
#121 = DIRECTION ( 'NONE',  ( -0.7071067811865463515, -2.897562362236303384E-16, 0.7071067811865487940 ) ) ;
#122 = CC_DESIGN_PERSON_AND_ORGANIZATION_ASSIGNMENT ( #44, #30, ( #84 ) ) ;
#123 = DIRECTION ( 'NONE',  ( 0.7071067811865486830, 1.200209628260102044E-16, 0.7071067811865462405 ) ) ;
#124 = CARTESIAN_POINT ( 'NONE',  ( 0.000000000000000000, -1.414213562373096256, -1.414213562373093369 ) ) ;
#125 = APPROVAL_DATE_TIME ( #112, #172 ) ;
#126 = CIRCLE ( 'NONE', #136, 2.000000000000000444 ) ;
#127 = APPLICATION_PROTOCOL_DEFINITION ( 'international standard', 'config_control_design', 1994, #128 ) ;
#128 = APPLICATION_CONTEXT ( 'configuration controlled 3d designs of mechanical parts and assemblies' ) ;
#129 = SECURITY_CLASSIFICATION_LEVEL ( 'unclassified' ) ;
#130 = PERSON_AND_ORGANIZATION ( #37, #48 ) ;
#131 = AXIS2_PLACEMENT_3D ( 'NONE', #82, #165, #10 ) ;
#132 = CC_DESIGN_DATE_AND_TIME_ASSIGNMENT ( #73, #26, ( #57 ) ) ;
#133 = CC_DESIGN_SECURITY_CLASSIFICATION ( #84, ( #21 ) ) ;
#134 = PERSON_AND_ORGANIZATION ( #37, #48 ) ;
#135 = CC_DESIGN_PERSON_AND_ORGANIZATION_ASSIGNMENT ( #130, #148, ( #34 ) ) ;
#136 = AXIS2_PLACEMENT_3D ( 'NONE', #181, #17, #39 ) ;
#137 = CC_DESIGN_PERSON_AND_ORGANIZATION_ASSIGNMENT ( #62, #91, ( #21 ) ) ;
#138 = AXIS2_PLACEMENT_3D ( 'NONE', #86, #202, #123 ) ;
#139 = EDGE_LOOP ( 'NONE', ( #212, #98, #193 ) ) ;
#140 = DIRECTION ( 'NONE',  ( 0.7071067811865486830, -4.673100952266434431E-15, -0.7071067811865462405 ) ) ;
#141 = EDGE_CURVE ( 'NONE', #116, #94, #177, .T. ) ;
#142 = DIRECTION ( 'NONE',  ( 0.000000000000000000, 4.097771990496395814E-16, -1.000000000000000000 ) ) ;
#143 = AXIS2_PLACEMENT_3D ( 'NONE', #201, #60, #142 ) ;
#144 = CARTESIAN_POINT ( 'NONE',  ( 1.414213562373097810, -1.414213562373091815, -5.463695987328526437E-16 ) ) ;
#145 = MANIFOLD_SOLID_BREP ( 'Revolve1', #182 ) ;
#146 = AXIS2_PLACEMENT_3D ( 'NONE', #104, #38, #1 ) ;
#147 = AXIS2_PLACEMENT_3D ( 'NONE', #162, #46, #28 ) ;
#148 = PERSON_AND_ORGANIZATION_ROLE ( 'design_owner' ) ;
#149 = COORDINATED_UNIVERSAL_TIME_OFFSET ( 8, 0, .BEHIND. ) ;
#150 = EDGE_CURVE ( 'NONE', #85, #118, #69, .T. ) ;
#151 = COORDINATED_UNIVERSAL_TIME_OFFSET ( 8, 0, .BEHIND. ) ;
#152 = LOCAL_TIME ( 10, 8, 53.00000000000000000, #43 ) ;
#153 =( NAMED_UNIT ( * ) PLANE_ANGLE_UNIT ( ) SI_UNIT ( $, .RADIAN. ) );
#154 = VERTEX_POINT ( 'NONE', #144 ) ;
#155 = APPROVAL_DATE_TIME ( #192, #102 ) ;
#156 = DIRECTION ( 'NONE',  ( 0.7071067811865463515, -2.897562362236303877E-16, 0.7071067811865487940 ) ) ;
#157 = PLANE ( 'NONE',  #92 ) ;
#158 = CARTESIAN_POINT ( 'NONE',  ( 0.000000000000000000, -1.414213562373096256, -1.414213562373093369 ) ) ;
#159 = VECTOR ( 'NONE', #41, 39.37007874015748854 ) ;
#160 = CALENDAR_DATE ( 2024, 21, 1 ) ;
#161 = DATE_TIME_ROLE ( 'classification_date' ) ;
#162 = CARTESIAN_POINT ( 'NONE',  ( 0.000000000000000000, 0.000000000000000000, 0.000000000000000000 ) ) ;
#163 = DATE_AND_TIME ( #160, #58 ) ;
#164 = EDGE_LOOP ( 'NONE', ( #81, #197, #33, #11 ) ) ;
#165 = DIRECTION ( 'NONE',  ( -0.000000000000000000, 1.000000000000000000, 4.097771990496395814E-16 ) ) ;
#166 = EDGE_LOOP ( 'NONE', ( #97, #12, #119 ) ) ;
#167 = ORIENTED_EDGE ( 'NONE', *, *, #150, .T. ) ;
#168 = CARTESIAN_POINT ( 'NONE',  ( -1.456639969244290844, -1.414213562373091815, 0.04242640687119218768 ) ) ;
#169 = CARTESIAN_POINT ( 'NONE',  ( 0.000000000000000000, 0.5857864376269035223, -1.414213562373092703 ) ) ;
#170 = UNCERTAINTY_MEASURE_WITH_UNIT (LENGTH_MEASURE( 1.000000000000000082E-05 ), #95, 'distance_accuracy_value', 'NONE');
#171 = FACE_OUTER_BOUND ( 'NONE', #164, .T. ) ;
#172 = APPROVAL ( #76, 'UNSPECIFIED' ) ;
#173 = DATE_AND_TIME ( #109, #152 ) ;
#174 = APPROVAL_ROLE ( '' ) ;
#175 = CC_DESIGN_APPROVAL ( #102, ( #84 ) ) ;
#176 = PERSON_AND_ORGANIZATION_ROLE ( 'creator' ) ;
#177 = CIRCLE ( 'NONE', #146, 2.060000000000000053 ) ;
#178 = EDGE_CURVE ( 'NONE', #154, #55, #74, .T. ) ;
#179 =( GEOMETRIC_REPRESENTATION_CONTEXT ( 3 ) GLOBAL_UNCERTAINTY_ASSIGNED_CONTEXT ( ( #170 ) ) GLOBAL_UNIT_ASSIGNED_CONTEXT ( ( #95, #153, #77 ) ) REPRESENTATION_CONTEXT ( 'NONE', 'WORKASPACE' ) );
#180 = DIRECTION ( 'NONE',  ( -0.7071067811865463515, 2.897562362236303877E-16, -0.7071067811865487940 ) ) ;
#181 = CARTESIAN_POINT ( 'NONE',  ( 0.000000000000000000, -1.414213562373091371, -1.414213562373093369 ) ) ;
#182 = CLOSED_SHELL ( 'NONE', ( #23, #204, #14, #96, #29 ) ) ;
#183 = DIRECTION ( 'NONE',  ( 0.7071067811865487940, 1.365923996832131609E-16, 0.7071067811865463515 ) ) ;
#184 = CARTESIAN_POINT ( 'NONE',  ( 1.414213562373097810, -1.414213562373091815, -5.463695987328526437E-16 ) ) ;
#185 = DIRECTION ( 'NONE',  ( -0.7071067811865486830, -2.652279605499284908E-16, 0.7071067811865463515 ) ) ;
#186 = PERSON_AND_ORGANIZATION ( #37, #48 ) ;
#187 = APPROVAL_STATUS ( 'not_yet_approved' ) ;
#188 = EDGE_CURVE ( 'NONE', #55, #116, #40, .T. ) ;
#189 = PERSON_AND_ORGANIZATION_ROLE ( 'creator' ) ;
#190 =( LENGTH_UNIT ( ) NAMED_UNIT ( * ) SI_UNIT ( $, .METRE. ) );
#191 = PRODUCT_RELATED_PRODUCT_CATEGORY ( 'detail', '', ( #34 ) ) ;
#192 = DATE_AND_TIME ( #52, #79 ) ;
#193 = ORIENTED_EDGE ( 'NONE', *, *, #6, .T. ) ;
#194 = AXIS2_PLACEMENT_3D ( 'NONE', #199, #121, #183 ) ;
#195 = CC_DESIGN_APPROVAL ( #19, ( #57 ) ) ;
#196 = ORIENTED_EDGE ( 'NONE', *, *, #141, .T. ) ;
#197 = ORIENTED_EDGE ( 'NONE', *, *, #150, .F. ) ;
#198 = SPHERICAL_SURFACE ( 'NONE', #9, 2.000000000000000000 ) ;
#199 = CARTESIAN_POINT ( 'NONE',  ( 0.000000000000000000, -1.414213562373096256, -1.414213562373093369 ) ) ;
#200 = CARTESIAN_POINT ( 'NONE',  ( 0.000000000000000000, -1.414213562373096256, -1.414213562373093369 ) ) ;
#201 = CARTESIAN_POINT ( 'NONE',  ( -1.414213562373097810, -1.414213562373091815, -5.463695987328526437E-16 ) ) ;
#202 = DIRECTION ( 'NONE',  ( -0.7071067811865463515, -2.897562362236303877E-16, 0.7071067811865487940 ) ) ;
#203 = APPROVAL_ROLE ( '' ) ;
#204 = ADVANCED_FACE ( 'NONE', ( #2 ), #70, .T. ) ;
#205 = CALENDAR_DATE ( 2024, 21, 1 ) ;
#206 = CALENDAR_DATE ( 2024, 21, 1 ) ;
#207 = EDGE_CURVE ( 'NONE', #118, #55, #16, .T. ) ;
#208 = ORIENTED_EDGE ( 'NONE', *, *, #188, .T. ) ;
#209 = FACE_OUTER_BOUND ( 'NONE', #139, .T. ) ;
#210 = CIRCLE ( 'NONE', #27, 2.060000000000000053 ) ;
#211 = FACE_OUTER_BOUND ( 'NONE', #166, .T. ) ;
#212 = ORIENTED_EDGE ( 'NONE', *, *, #141, .F. ) ;
#213 = CARTESIAN_POINT ( 'NONE',  ( -1.414213562373097810, -1.414213562373091815, -5.463695987328526437E-16 ) ) ;
ENDSEC;
END-ISO-10303-21;
