ISO-10303-21;
HEADER;
FILE_DESCRIPTION (( 'STEP AP203' ),
    '1' );
FILE_NAME ('400405.STEP',
    '2024-01-21T18:20:56',
    ( '' ),
    ( '' ),
    'SwSTEP 2.0',
    'SolidWorks 2021',
    '' );
FILE_SCHEMA (( 'CONFIG_CONTROL_DESIGN' ));
ENDSEC;

DATA;
#1 = VECTOR ( 'NONE', #58, 39.37007874015748854 ) ;
#2 = LOCAL_TIME ( 10, 20, 56.00000000000000000, #139 ) ;
#3 = PLANE ( 'NONE',  #140 ) ;
#4 = CARTESIAN_POINT ( 'NONE',  ( -1.414213562373097810, -1.414213562373091593, -5.463695987328525451E-16 ) ) ;
#5 = ADVANCED_FACE ( 'NONE', ( #26 ), #195, .T. ) ;
#6 = CARTESIAN_POINT ( 'NONE',  ( -1.467246570962088992, -1.414213562373091371, 0.05303300858899009929 ) ) ;
#7 = ORIENTED_EDGE ( 'NONE', *, *, #109, .F. ) ;
#8 = VERTEX_POINT ( 'NONE', #181 ) ;
#9 = DIRECTION ( 'NONE',  ( -0.000000000000000000, 1.000000000000000000, 4.097771990496395814E-16 ) ) ;
#10 = AXIS2_PLACEMENT_3D ( 'NONE', #207, #72, #104 ) ;
#11 = COORDINATED_UNIVERSAL_TIME_OFFSET ( 8, 0, .BEHIND. ) ;
#12 = EDGE_LOOP ( 'NONE', ( #42, #74, #48 ) ) ;
#13 = APPROVAL ( #150, 'UNSPECIFIED' ) ;
#14 = CARTESIAN_POINT ( 'NONE',  ( 0.000000000000000000, 0.000000000000000000, 0.000000000000000000 ) ) ;
#15 = APPLICATION_PROTOCOL_DEFINITION ( 'international standard', 'config_control_design', 1994, #89 ) ;
#16 = CIRCLE ( 'NONE', #154, 2.074999999999999734 ) ;
#17 = ADVANCED_FACE ( 'NONE', ( #162 ), #135, .F. ) ;
#18 = DATE_AND_TIME ( #202, #2 ) ;
#19 = CC_DESIGN_SECURITY_CLASSIFICATION ( #110, ( #88 ) ) ;
#20 = EDGE_CURVE ( 'NONE', #190, #131, #16, .T. ) ;
#21 = LOCAL_TIME ( 10, 20, 56.00000000000000000, #52 ) ;
#22 = DIRECTION ( 'NONE',  ( -0.7071067811865463515, 2.897562362236303877E-16, -0.7071067811865487940 ) ) ;
#23 = DIRECTION ( 'NONE',  ( -0.7071067811865463515, 2.897562362236303877E-16, -0.7071067811865487940 ) ) ;
#24 = ORIENTED_EDGE ( 'NONE', *, *, #186, .T. ) ;
#25 = PLANE ( 'NONE',  #125 ) ;
#26 = FACE_OUTER_BOUND ( 'NONE', #12, .T. ) ;
#27 = AXIS2_PLACEMENT_3D ( 'NONE', #188, #94, #112 ) ;
#28 = CARTESIAN_POINT ( 'NONE',  ( -1.414213562373097810, -1.414213562373091815, -5.463695987328526437E-16 ) ) ;
#29 = DIRECTION ( 'NONE',  ( 0.7071067811865463515, -2.897562362236303384E-16, 0.7071067811865487940 ) ) ;
#30 = CARTESIAN_POINT ( 'NONE',  ( 0.000000000000000000, 0.5857864376269035223, -1.414213562373092703 ) ) ;
#31 = VERTEX_POINT ( 'NONE', #164 ) ;
#32 = DATE_TIME_ROLE ( 'classification_date' ) ;
#33 = SHAPE_DEFINITION_REPRESENTATION ( #205, #130 ) ;
#34 = PERSON ( 'UNSPECIFIED', 'UNSPECIFIED', 'UNSPECIFIED', ('UNSPECIFIED'), ('UNSPECIFIED'), ('UNSPECIFIED') ) ;
#35 = EDGE_CURVE ( 'NONE', #131, #144, #118, .T. ) ;
#36 = UNCERTAINTY_MEASURE_WITH_UNIT (LENGTH_MEASURE( 1.000000000000000082E-05 ), #208, 'distance_accuracy_value', 'NONE');
#37 = DESIGN_CONTEXT ( 'detailed design', #85, 'design' ) ;
#38 = DIRECTION ( 'NONE',  ( 0.000000000000000000, -4.097771990496393842E-16, 1.000000000000000000 ) ) ;
#39 = AXIS2_PLACEMENT_3D ( 'NONE', #4, #40, #114 ) ;
#40 = DIRECTION ( 'NONE',  ( 0.000000000000000000, -1.000000000000000000, -4.097771990496395814E-16 ) ) ;
#41 = LINE ( 'NONE', #192, #1 ) ;
#42 = ORIENTED_EDGE ( 'NONE', *, *, #204, .F. ) ;
#43 =( GEOMETRIC_REPRESENTATION_CONTEXT ( 3 ) GLOBAL_UNCERTAINTY_ASSIGNED_CONTEXT ( ( #36 ) ) GLOBAL_UNIT_ASSIGNED_CONTEXT ( ( #208, #95, #161 ) ) REPRESENTATION_CONTEXT ( 'NONE', 'WORKASPACE' ) );
#44 = CARTESIAN_POINT ( 'NONE',  ( 0.000000000000000000, -1.414213562373096256, -1.414213562373093369 ) ) ;
#45 = ORIENTED_EDGE ( 'NONE', *, *, #20, .F. ) ;
#46 = DIRECTION ( 'NONE',  ( -0.7071067811865487940, 1.316553249958681262E-16, 0.7071067811865462405 ) ) ;
#47 = CALENDAR_DATE ( 2024, 21, 1 ) ;
#48 = ORIENTED_EDGE ( 'NONE', *, *, #138, .T. ) ;
#49 = CC_DESIGN_DATE_AND_TIME_ASSIGNMENT ( #168, #32, ( #110 ) ) ;
#50 = PERSON_AND_ORGANIZATION_ROLE ( 'design_supplier' ) ;
#51 = ORIENTED_EDGE ( 'NONE', *, *, #63, .F. ) ;
#52 = COORDINATED_UNIVERSAL_TIME_OFFSET ( 8, 0, .BEHIND. ) ;
#53 = EDGE_CURVE ( 'NONE', #147, #190, #179, .T. ) ;
#54 = CALENDAR_DATE ( 2024, 21, 1 ) ;
#55 = PERSON_AND_ORGANIZATION ( #34, #83 ) ;
#56 = PRODUCT_DEFINITION ( 'UNKNOWN', '', #88, #37 ) ;
#57 = CC_DESIGN_PERSON_AND_ORGANIZATION_ASSIGNMENT ( #134, #213, ( #110 ) ) ;
#58 = DIRECTION ( 'NONE',  ( -0.7071067811865486830, -7.404948945930723288E-15, -0.7071067811865462405 ) ) ;
#59 = ORIENTED_EDGE ( 'NONE', *, *, #35, .F. ) ;
#60 = CIRCLE ( 'NONE', #184, 2.000000000000000444 ) ;
#61 = CARTESIAN_POINT ( 'NONE',  ( 0.000000000000000000, -1.414213562373096256, -1.414213562373093369 ) ) ;
#62 = ORIENTED_EDGE ( 'NONE', *, *, #35, .T. ) ;
#63 = EDGE_CURVE ( 'NONE', #144, #31, #60, .T. ) ;
#64 = CARTESIAN_POINT ( 'NONE',  ( -2.731847993664263218E-16, 0.6607864376269033668, -1.414213562373092481 ) ) ;
#65 = DIRECTION ( 'NONE',  ( 0.7071067811865486830, -7.404948945930723288E-15, -0.7071067811865462405 ) ) ;
#66 = PERSON_AND_ORGANIZATION ( #34, #83 ) ;
#67 = DATE_AND_TIME ( #211, #21 ) ;
#68 = APPLICATION_PROTOCOL_DEFINITION ( 'international standard', 'config_control_design', 1994, #85 ) ;
#69 = ADVANCED_FACE ( 'NONE', ( #145 ), #158, .T. ) ;
#70 = CIRCLE ( 'NONE', #187, 2.000000000000000000 ) ;
#71 = CC_DESIGN_APPROVAL ( #169, ( #88 ) ) ;
#72 = DIRECTION ( 'NONE',  ( 0.7071067811865462405, -2.897562362236303877E-16, 0.7071067811865487940 ) ) ;
#73 = DIRECTION ( 'NONE',  ( -0.000000000000000000, 1.000000000000000000, 4.097771990496395814E-16 ) ) ;
#74 = ORIENTED_EDGE ( 'NONE', *, *, #20, .T. ) ;
#75 = ORIENTED_EDGE ( 'NONE', *, *, #53, .F. ) ;
#76 = AXIS2_PLACEMENT_3D ( 'NONE', #44, #29, #98 ) ;
#77 = CARTESIAN_POINT ( 'NONE',  ( -1.414213562373097810, -1.414213562373091815, -5.463695987328526437E-16 ) ) ;
#78 = COORDINATED_UNIVERSAL_TIME_OFFSET ( 8, 0, .BEHIND. ) ;
#79 = ORIENTED_EDGE ( 'NONE', *, *, #53, .T. ) ;
#80 = MECHANICAL_CONTEXT ( 'NONE', #89, 'mechanical' ) ;
#81 = DATE_AND_TIME ( #47, #196 ) ;
#82 = APPROVAL ( #102, 'UNSPECIFIED' ) ;
#83 = ORGANIZATION ( 'UNSPECIFIED', 'UNSPECIFIED', '' ) ;
#84 = PERSON_AND_ORGANIZATION ( #34, #83 ) ;
#85 = APPLICATION_CONTEXT ( 'configuration controlled 3d designs of mechanical parts and assemblies' ) ;
#86 = PRODUCT ( '400405', '400405', '', ( #80 ) ) ;
#87 = CIRCLE ( 'NONE', #27, 2.074999999999999734 ) ;
#88 = PRODUCT_DEFINITION_FORMATION_WITH_SPECIFIED_SOURCE ( 'ANY', '', #86, .NOT_KNOWN. ) ;
#89 = APPLICATION_CONTEXT ( 'configuration controlled 3d designs of mechanical parts and assemblies' ) ;
#90 = VECTOR ( 'NONE', #99, 39.37007874015748143 ) ;
#91 = APPROVAL_PERSON_ORGANIZATION ( #149, #169, #124 ) ;
#92 = CC_DESIGN_PERSON_AND_ORGANIZATION_ASSIGNMENT ( #55, #100, ( #86 ) ) ;
#93 = CARTESIAN_POINT ( 'NONE',  ( 0.000000000000000000, -1.414213562373090705, -1.414213562373093369 ) ) ;
#94 = DIRECTION ( 'NONE',  ( 0.7071067811865463515, 2.897562362236303384E-16, -0.7071067811865487940 ) ) ;
#95 =( NAMED_UNIT ( * ) PLANE_ANGLE_UNIT ( ) SI_UNIT ( $, .RADIAN. ) );
#96 = CC_DESIGN_PERSON_AND_ORGANIZATION_ASSIGNMENT ( #106, #50, ( #88 ) ) ;
#97 = LENGTH_MEASURE_WITH_UNIT ( LENGTH_MEASURE( 0.02539999999999999897 ), #146 );
#98 = DIRECTION ( 'NONE',  ( -0.7071067811865487940, -2.633106499917362524E-16, 0.7071067811865463515 ) ) ;
#99 = DIRECTION ( 'NONE',  ( -2.285854752430874673E-15, 1.000000000000000000, 2.695631951480506169E-15 ) ) ;
#100 = PERSON_AND_ORGANIZATION_ROLE ( 'design_owner' ) ;
#101 = ORIENTED_EDGE ( 'NONE', *, *, #115, .F. ) ;
#102 = APPROVAL_STATUS ( 'not_yet_approved' ) ;
#103 = DIRECTION ( 'NONE',  ( 0.000000000000000000, 0.000000000000000000, 1.000000000000000000 ) ) ;
#104 = DIRECTION ( 'NONE',  ( -0.7071067811865486830, -2.731847993664262725E-16, 0.7071067811865462405 ) ) ;
#105 = VECTOR ( 'NONE', #65, 39.37007874015748854 ) ;
#106 = PERSON_AND_ORGANIZATION ( #34, #83 ) ;
#107 = APPROVAL_PERSON_ORGANIZATION ( #66, #13, #153 ) ;
#108 = LOCAL_TIME ( 10, 20, 56.00000000000000000, #119 ) ;
#109 = EDGE_CURVE ( 'NONE', #144, #147, #70, .T. ) ;
#110 = SECURITY_CLASSIFICATION ( '', '', #121 ) ;
#111 = PRODUCT_RELATED_PRODUCT_CATEGORY ( 'detail', '', ( #86 ) ) ;
#112 = DIRECTION ( 'NONE',  ( 0.7071067811865487940, 1.316553249958681262E-16, 0.7071067811865462405 ) ) ;
#113 = ORIENTED_EDGE ( 'NONE', *, *, #186, .F. ) ;
#114 = DIRECTION ( 'NONE',  ( 0.000000000000000000, 4.097771990496395814E-16, -1.000000000000000000 ) ) ;
#115 = EDGE_CURVE ( 'NONE', #8, #31, #41, .T. ) ;
#116 = FACE_OUTER_BOUND ( 'NONE', #171, .T. ) ;
#117 = DIRECTION ( 'NONE',  ( 0.7071067811865486830, 1.200209628260102044E-16, 0.7071067811865462405 ) ) ;
#118 = LINE ( 'NONE', #77, #105 ) ;
#119 = COORDINATED_UNIVERSAL_TIME_OFFSET ( 8, 0, .BEHIND. ) ;
#120 = ORIENTED_EDGE ( 'NONE', *, *, #138, .F. ) ;
#121 = SECURITY_CLASSIFICATION_LEVEL ( 'unclassified' ) ;
#122 = APPROVAL_PERSON_ORGANIZATION ( #84, #82, #167 ) ;
#123 = PERSON_AND_ORGANIZATION_ROLE ( 'creator' ) ;
#124 = APPROVAL_ROLE ( '' ) ;
#125 = AXIS2_PLACEMENT_3D ( 'NONE', #61, #143, #117 ) ;
#126 = DIMENSIONAL_EXPONENTS ( 1.000000000000000000, 0.000000000000000000, 0.000000000000000000, 0.000000000000000000, 0.000000000000000000, 0.000000000000000000, 0.000000000000000000 ) ;
#127 = ADVANCED_FACE ( 'NONE', ( #116 ), #3, .T. ) ;
#128 = DIRECTION ( 'NONE',  ( 0.7071067811865487940, 1.365923996832131609E-16, 0.7071067811865463515 ) ) ;
#129 = AXIS2_PLACEMENT_3D ( 'NONE', #194, #177, #128 ) ;
#130 = ADVANCED_BREP_SHAPE_REPRESENTATION ( '400405', ( #165, #175 ), #43 ) ;
#131 = VERTEX_POINT ( 'NONE', #6 ) ;
#132 = CARTESIAN_POINT ( 'NONE',  ( 0.000000000000000000, 0.5857864376269035223, -1.414213562373092703 ) ) ;
#133 = CC_DESIGN_APPROVAL ( #13, ( #56 ) ) ;
#134 = PERSON_AND_ORGANIZATION ( #34, #83 ) ;
#135 = SPHERICAL_SURFACE ( 'NONE', #10, 2.000000000000000000 ) ;
#136 = CARTESIAN_POINT ( 'NONE',  ( 0.000000000000000000, -1.414213562373096256, -1.414213562373093369 ) ) ;
#137 = PERSON_AND_ORGANIZATION_ROLE ( 'creator' ) ;
#138 = EDGE_CURVE ( 'NONE', #131, #8, #212, .T. ) ;
#139 = COORDINATED_UNIVERSAL_TIME_OFFSET ( 8, 0, .BEHIND. ) ;
#140 = AXIS2_PLACEMENT_3D ( 'NONE', #209, #22, #160 ) ;
#141 = CC_DESIGN_PERSON_AND_ORGANIZATION_ASSIGNMENT ( #199, #123, ( #88 ) ) ;
#142 = APPROVAL_STATUS ( 'not_yet_approved' ) ;
#143 = DIRECTION ( 'NONE',  ( -0.7071067811865463515, -2.897562362236303877E-16, 0.7071067811865487940 ) ) ;
#144 = VERTEX_POINT ( 'NONE', #28 ) ;
#145 = FACE_OUTER_BOUND ( 'NONE', #200, .T. ) ;
#146 =( LENGTH_UNIT ( ) NAMED_UNIT ( * ) SI_UNIT ( $, .METRE. ) );
#147 = VERTEX_POINT ( 'NONE', #132 ) ;
#148 = CARTESIAN_POINT ( 'NONE',  ( 0.000000000000000000, -1.414213562373091371, -1.414213562373093369 ) ) ;
#149 = PERSON_AND_ORGANIZATION ( #34, #83 ) ;
#150 = APPROVAL_STATUS ( 'not_yet_approved' ) ;
#151 = ADVANCED_FACE ( 'NONE', ( #170 ), #25, .F. ) ;
#152 = DIRECTION ( 'NONE',  ( 1.000000000000000000, 0.000000000000000000, 0.000000000000000000 ) ) ;
#153 = APPROVAL_ROLE ( '' ) ;
#154 = AXIS2_PLACEMENT_3D ( 'NONE', #136, #210, #46 ) ;
#155 = CIRCLE ( 'NONE', #129, 2.000000000000000000 ) ;
#156 = CC_DESIGN_DATE_AND_TIME_ASSIGNMENT ( #166, #180, ( #56 ) ) ;
#157 = AXIS2_PLACEMENT_3D ( 'NONE', #93, #73, #173 ) ;
#158 = PLANE ( 'NONE',  #39 ) ;
#159 = ORIENTED_EDGE ( 'NONE', *, *, #115, .T. ) ;
#160 = DIRECTION ( 'NONE',  ( -0.7071067811865486830, 1.200209628260102537E-16, 0.7071067811865462405 ) ) ;
#161 =( NAMED_UNIT ( * ) SI_UNIT ( $, .STERADIAN. ) SOLID_ANGLE_UNIT ( ) );
#162 = FACE_OUTER_BOUND ( 'NONE', #163, .T. ) ;
#163 = EDGE_LOOP ( 'NONE', ( #51, #182, #113 ) ) ;
#164 = CARTESIAN_POINT ( 'NONE',  ( 1.414213562373097810, -1.414213562373091815, -5.463695987328526437E-16 ) ) ;
#165 = MANIFOLD_SOLID_BREP ( 'Revolve1', #174 ) ;
#166 = DATE_AND_TIME ( #54, #206 ) ;
#167 = APPROVAL_ROLE ( '' ) ;
#168 = DATE_AND_TIME ( #183, #108 ) ;
#169 = APPROVAL ( #142, 'UNSPECIFIED' ) ;
#170 = FACE_OUTER_BOUND ( 'NONE', #198, .T. ) ;
#171 = EDGE_LOOP ( 'NONE', ( #7, #59, #45, #75 ) ) ;
#172 = DIRECTION ( 'NONE',  ( -0.7071067811865487940, 1.365923996832131609E-16, 0.7071067811865463515 ) ) ;
#173 = DIRECTION ( 'NONE',  ( 0.000000000000000000, -3.949659749876043047E-16, 1.000000000000000000 ) ) ;
#174 = CLOSED_SHELL ( 'NONE', ( #17, #69, #5, #127, #151 ) ) ;
#175 = AXIS2_PLACEMENT_3D ( 'NONE', #14, #103, #152 ) ;
#176 = ORIENTED_EDGE ( 'NONE', *, *, #63, .T. ) ;
#177 = DIRECTION ( 'NONE',  ( -0.7071067811865463515, -2.897562362236303384E-16, 0.7071067811865487940 ) ) ;
#178 = ORIENTED_EDGE ( 'NONE', *, *, #204, .T. ) ;
#179 = LINE ( 'NONE', #30, #90 ) ;
#180 = DATE_TIME_ROLE ( 'creation_date' ) ;
#181 = CARTESIAN_POINT ( 'NONE',  ( 1.467246570962088770, -1.414213562373091371, 0.05303300858899036990 ) ) ;
#182 = ORIENTED_EDGE ( 'NONE', *, *, #109, .T. ) ;
#183 = CALENDAR_DATE ( 2024, 21, 1 ) ;
#184 = AXIS2_PLACEMENT_3D ( 'NONE', #148, #9, #38 ) ;
#185 = PERSON_AND_ORGANIZATION ( #34, #83 ) ;
#186 = EDGE_CURVE ( 'NONE', #31, #147, #155, .T. ) ;
#187 = AXIS2_PLACEMENT_3D ( 'NONE', #193, #23, #172 ) ;
#188 = CARTESIAN_POINT ( 'NONE',  ( 0.000000000000000000, -1.414213562373096256, -1.414213562373093369 ) ) ;
#189 = CC_DESIGN_APPROVAL ( #82, ( #110 ) ) ;
#190 = VERTEX_POINT ( 'NONE', #64 ) ;
#191 = CC_DESIGN_PERSON_AND_ORGANIZATION_ASSIGNMENT ( #185, #137, ( #56 ) ) ;
#192 = CARTESIAN_POINT ( 'NONE',  ( 1.414213562373097810, -1.414213562373091815, -5.463695987328526437E-16 ) ) ;
#193 = CARTESIAN_POINT ( 'NONE',  ( 0.000000000000000000, -1.414213562373096256, -1.414213562373093369 ) ) ;
#194 = CARTESIAN_POINT ( 'NONE',  ( 0.000000000000000000, -1.414213562373096256, -1.414213562373093369 ) ) ;
#195 = SPHERICAL_SURFACE ( 'NONE', #76, 2.074999999999999734 ) ;
#196 = LOCAL_TIME ( 10, 20, 56.00000000000000000, #11 ) ;
#197 = APPROVAL_DATE_TIME ( #18, #13 ) ;
#198 = EDGE_LOOP ( 'NONE', ( #24, #79, #178, #159 ) ) ;
#199 = PERSON_AND_ORGANIZATION ( #34, #83 ) ;
#200 = EDGE_LOOP ( 'NONE', ( #120, #62, #176, #101 ) ) ;
#201 = APPROVAL_DATE_TIME ( #67, #82 ) ;
#202 = CALENDAR_DATE ( 2024, 21, 1 ) ;
#203 = APPROVAL_DATE_TIME ( #81, #169 ) ;
#204 = EDGE_CURVE ( 'NONE', #190, #8, #87, .T. ) ;
#205 = PRODUCT_DEFINITION_SHAPE ( 'NONE', 'NONE',  #56 ) ;
#206 = LOCAL_TIME ( 10, 20, 56.00000000000000000, #78 ) ;
#207 = CARTESIAN_POINT ( 'NONE',  ( 0.000000000000000000, -1.414213562373096256, -1.414213562373093369 ) ) ;
#208 =( CONVERSION_BASED_UNIT ( 'INCH', #97 ) LENGTH_UNIT ( ) NAMED_UNIT ( #126 ) );
#209 = CARTESIAN_POINT ( 'NONE',  ( 0.000000000000000000, -1.414213562373096256, -1.414213562373093369 ) ) ;
#210 = DIRECTION ( 'NONE',  ( 0.7071067811865463515, -2.897562362236303877E-16, 0.7071067811865487940 ) ) ;
#211 = CALENDAR_DATE ( 2024, 21, 1 ) ;
#212 = CIRCLE ( 'NONE', #157, 2.075000000000000178 ) ;
#213 = PERSON_AND_ORGANIZATION_ROLE ( 'classification_officer' ) ;
ENDSEC;
END-ISO-10303-21;
