ISO-10303-21;
HEADER;
FILE_DESCRIPTION (( 'STEP AP203' ),
    '1' );
FILE_NAME ('400406.STEP',
    '2024-01-21T18:12:05',
    ( '' ),
    ( '' ),
    'SwSTEP 2.0',
    'SolidWorks 2021',
    '' );
FILE_SCHEMA (( 'CONFIG_CONTROL_DESIGN' ));
ENDSEC;

DATA;
#1 = CARTESIAN_POINT ( 'NONE',  ( 1.414213562373097810, -1.414213562373091815, -5.463695987328526437E-16 ) ) ;
#2 = EDGE_LOOP ( 'NONE', ( #203, #14, #45, #66 ) ) ;
#3 = CARTESIAN_POINT ( 'NONE',  ( 0.000000000000000000, -1.414213562373091371, -1.414213562373093369 ) ) ;
#4 = VECTOR ( 'NONE', #184, 39.37007874015748854 ) ;
#5 = PERSON ( 'UNSPECIFIED', 'UNSPECIFIED', 'UNSPECIFIED', ('UNSPECIFIED'), ('UNSPECIFIED'), ('UNSPECIFIED') ) ;
#6 = SECURITY_CLASSIFICATION ( '', '', #179 ) ;
#7 = CALENDAR_DATE ( 2024, 21, 1 ) ;
#8 = DIRECTION ( 'NONE',  ( 0.7071067811865487940, 1.307104303188642876E-16, 0.7071067811865463515 ) ) ;
#9 = SPHERICAL_SURFACE ( 'NONE', #192, 2.000000000000000000 ) ;
#10 = DATE_AND_TIME ( #196, #96 ) ;
#11 = PRODUCT_DEFINITION ( 'UNKNOWN', '', #82, #32 ) ;
#12 = PRODUCT_RELATED_PRODUCT_CATEGORY ( 'detail', '', ( #207 ) ) ;
#13 = DIRECTION ( 'NONE',  ( -0.7071067811865463515, 2.897562362236303877E-16, -0.7071067811865487940 ) ) ;
#14 = ORIENTED_EDGE ( 'NONE', *, *, #121, .T. ) ;
#15 = CLOSED_SHELL ( 'NONE', ( #39, #135, #91, #150, #17 ) ) ;
#16 = CC_DESIGN_SECURITY_CLASSIFICATION ( #6, ( #82 ) ) ;
#17 = ADVANCED_FACE ( 'NONE', ( #48 ), #131, .F. ) ;
#18 = FACE_OUTER_BOUND ( 'NONE', #145, .T. ) ;
#19 = PERSON_AND_ORGANIZATION_ROLE ( 'design_owner' ) ;
#20 = EDGE_LOOP ( 'NONE', ( #102, #41, #22 ) ) ;
#21 = DIRECTION ( 'NONE',  ( 0.000000000000000000, 0.000000000000000000, 1.000000000000000000 ) ) ;
#22 = ORIENTED_EDGE ( 'NONE', *, *, #64, .F. ) ;
#23 = PERSON_AND_ORGANIZATION ( #5, #84 ) ;
#24 = VERTEX_POINT ( 'NONE', #197 ) ;
#25 = APPROVAL_PERSON_ORGANIZATION ( #115, #188, #112 ) ;
#26 = CARTESIAN_POINT ( 'NONE',  ( 0.000000000000000000, 0.000000000000000000, 0.000000000000000000 ) ) ;
#27 = VERTEX_POINT ( 'NONE', #35 ) ;
#28 = CIRCLE ( 'NONE', #138, 2.089999999999999858 ) ;
#29 = APPROVAL_DATE_TIME ( #116, #147 ) ;
#30 = APPROVAL_STATUS ( 'not_yet_approved' ) ;
#31 = CARTESIAN_POINT ( 'NONE',  ( 0.000000000000000000, -1.414213562373096256, -1.414213562373093369 ) ) ;
#32 = DESIGN_CONTEXT ( 'detailed design', #177, 'design' ) ;
#33 = MANIFOLD_SOLID_BREP ( 'Revolve1', #15 ) ;
#34 = DATE_TIME_ROLE ( 'classification_date' ) ;
#35 = CARTESIAN_POINT ( 'NONE',  ( -1.414213562373097810, -1.414213562373091815, -5.463695987328526437E-16 ) ) ;
#36 = CC_DESIGN_PERSON_AND_ORGANIZATION_ASSIGNMENT ( #99, #67, ( #82 ) ) ;
#37 = PLANE ( 'NONE',  #128 ) ;
#38 = CIRCLE ( 'NONE', #154, 2.000000000000000444 ) ;
#39 = ADVANCED_FACE ( 'NONE', ( #190 ), #9, .F. ) ;
#40 = APPROVAL_PERSON_ORGANIZATION ( #68, #206, #50 ) ;
#41 = ORIENTED_EDGE ( 'NONE', *, *, #46, .T. ) ;
#42 = LINE ( 'NONE', #1, #162 ) ;
#43 = ORIENTED_EDGE ( 'NONE', *, *, #194, .F. ) ;
#44 = APPROVAL_STATUS ( 'not_yet_approved' ) ;
#45 = ORIENTED_EDGE ( 'NONE', *, *, #156, .T. ) ;
#46 = EDGE_CURVE ( 'NONE', #27, #24, #90, .T. ) ;
#47 = APPROVAL_STATUS ( 'not_yet_approved' ) ;
#48 = FACE_OUTER_BOUND ( 'NONE', #73, .T. ) ;
#49 = MECHANICAL_CONTEXT ( 'NONE', #198, 'mechanical' ) ;
#50 = APPROVAL_ROLE ( '' ) ;
#51 = AXIS2_PLACEMENT_3D ( 'NONE', #31, #101, #134 ) ;
#52 = COORDINATED_UNIVERSAL_TIME_OFFSET ( 8, 0, .BEHIND. ) ;
#53 = LOCAL_TIME ( 10, 12, 5.000000000000000000, #94 ) ;
#54 = DIRECTION ( 'NONE',  ( -0.7071067811865487940, 1.365923996832131609E-16, 0.7071067811865463515 ) ) ;
#55 = ORIENTED_EDGE ( 'NONE', *, *, #76, .T. ) ;
#56 = CC_DESIGN_PERSON_AND_ORGANIZATION_ASSIGNMENT ( #89, #113, ( #11 ) ) ;
#57 = APPROVAL_DATE_TIME ( #10, #206 ) ;
#58 = CC_DESIGN_PERSON_AND_ORGANIZATION_ASSIGNMENT ( #23, #19, ( #207 ) ) ;
#59 = AXIS2_PLACEMENT_3D ( 'NONE', #26, #21, #189 ) ;
#60 = CARTESIAN_POINT ( 'NONE',  ( -1.414213562373097810, -1.414213562373091593, -5.463695987328525451E-16 ) ) ;
#61 = CIRCLE ( 'NONE', #83, 2.090000000000000302 ) ;
#62 = CARTESIAN_POINT ( 'NONE',  ( 0.000000000000000000, -1.414213562373096256, -1.414213562373093369 ) ) ;
#63 = DIRECTION ( 'NONE',  ( 0.7071067811865463515, 2.897562362236303384E-16, -0.7071067811865487940 ) ) ;
#64 = EDGE_CURVE ( 'NONE', #186, #24, #202, .T. ) ;
#65 = APPLICATION_PROTOCOL_DEFINITION ( 'international standard', 'config_control_design', 1994, #177 ) ;
#66 = ORIENTED_EDGE ( 'NONE', *, *, #76, .F. ) ;
#67 = PERSON_AND_ORGANIZATION_ROLE ( 'design_supplier' ) ;
#68 = PERSON_AND_ORGANIZATION ( #5, #84 ) ;
#69 = AXIS2_PLACEMENT_3D ( 'NONE', #199, #165, #136 ) ;
#70 = PERSON_AND_ORGANIZATION_ROLE ( 'classification_officer' ) ;
#71 = DATE_AND_TIME ( #146, #130 ) ;
#72 = APPLICATION_PROTOCOL_DEFINITION ( 'international standard', 'config_control_design', 1994, #198 ) ;
#73 = EDGE_LOOP ( 'NONE', ( #152, #139, #110, #55 ) ) ;
#74 = DATE_TIME_ROLE ( 'creation_date' ) ;
#75 = ORIENTED_EDGE ( 'NONE', *, *, #194, .T. ) ;
#76 = EDGE_CURVE ( 'NONE', #107, #186, #42, .T. ) ;
#77 = CARTESIAN_POINT ( 'NONE',  ( 0.000000000000000000, -1.414213562373096256, -1.414213562373093369 ) ) ;
#78 = VERTEX_POINT ( 'NONE', #119 ) ;
#79 =( LENGTH_UNIT ( ) NAMED_UNIT ( * ) SI_UNIT ( $, .METRE. ) );
#80 = CARTESIAN_POINT ( 'NONE',  ( 0.000000000000000000, -1.414213562373096256, -1.414213562373093369 ) ) ;
#81 = PERSON_AND_ORGANIZATION_ROLE ( 'creator' ) ;
#82 = PRODUCT_DEFINITION_FORMATION_WITH_SPECIFIED_SOURCE ( 'ANY', '', #207, .NOT_KNOWN. ) ;
#83 = AXIS2_PLACEMENT_3D ( 'NONE', #173, #124, #169 ) ;
#84 = ORGANIZATION ( 'UNSPECIFIED', 'UNSPECIFIED', '' ) ;
#85 = CC_DESIGN_DATE_AND_TIME_ASSIGNMENT ( #71, #34, ( #6 ) ) ;
#86 = LINE ( 'NONE', #166, #123 ) ;
#87 = CARTESIAN_POINT ( 'NONE',  ( -2.731847993664263218E-16, 0.6757864376269036022, -1.414213562373092481 ) ) ;
#88 = ORIENTED_EDGE ( 'NONE', *, *, #129, .F. ) ;
#89 = PERSON_AND_ORGANIZATION ( #5, #84 ) ;
#90 = CIRCLE ( 'NONE', #148, 2.000000000000000000 ) ;
#91 = ADVANCED_FACE ( 'NONE', ( #163 ), #104, .T. ) ;
#92 = CARTESIAN_POINT ( 'NONE',  ( 0.000000000000000000, -1.414213562373096256, -1.414213562373093369 ) ) ;
#93 = ADVANCED_BREP_SHAPE_REPRESENTATION ( '400406', ( #33, #59 ), #142 ) ;
#94 = COORDINATED_UNIVERSAL_TIME_OFFSET ( 8, 0, .BEHIND. ) ;
#95 = ORIENTED_EDGE ( 'NONE', *, *, #209, .T. ) ;
#96 = LOCAL_TIME ( 10, 12, 5.000000000000000000, #52 ) ;
#97 = COORDINATED_UNIVERSAL_TIME_OFFSET ( 8, 0, .BEHIND. ) ;
#98 = CALENDAR_DATE ( 2024, 21, 1 ) ;
#99 = PERSON_AND_ORGANIZATION ( #5, #84 ) ;
#100 = SHAPE_DEFINITION_REPRESENTATION ( #118, #93 ) ;
#101 = DIRECTION ( 'NONE',  ( -0.7071067811865463515, -2.897562362236303384E-16, 0.7071067811865487940 ) ) ;
#102 = ORIENTED_EDGE ( 'NONE', *, *, #156, .F. ) ;
#103 = AXIS2_PLACEMENT_3D ( 'NONE', #157, #211, #127 ) ;
#104 = SPHERICAL_SURFACE ( 'NONE', #69, 2.089999999999999858 ) ;
#105 = CC_DESIGN_APPROVAL ( #206, ( #6 ) ) ;
#106 = LOCAL_TIME ( 10, 12, 5.000000000000000000, #176 ) ;
#107 = VERTEX_POINT ( 'NONE', #182 ) ;
#108 = DIRECTION ( 'NONE',  ( 0.000000000000000000, -1.000000000000000000, -4.097771990496395814E-16 ) ) ;
#109 = DIRECTION ( 'NONE',  ( -0.7071067811865486830, 1.200209628260102537E-16, 0.7071067811865462405 ) ) ;
#110 = ORIENTED_EDGE ( 'NONE', *, *, #170, .T. ) ;
#111 = APPROVAL_ROLE ( '' ) ;
#112 = APPROVAL_ROLE ( '' ) ;
#113 = PERSON_AND_ORGANIZATION_ROLE ( 'creator' ) ;
#114 = CC_DESIGN_PERSON_AND_ORGANIZATION_ASSIGNMENT ( #159, #81, ( #82 ) ) ;
#115 = PERSON_AND_ORGANIZATION ( #5, #84 ) ;
#116 = DATE_AND_TIME ( #98, #106 ) ;
#117 = PERSON_AND_ORGANIZATION ( #5, #84 ) ;
#118 = PRODUCT_DEFINITION_SHAPE ( 'NONE', 'NONE',  #11 ) ;
#119 = CARTESIAN_POINT ( 'NONE',  ( -1.477853172679887139, -1.414213562373091371, 0.06363961030678827457 ) ) ;
#120 = DIMENSIONAL_EXPONENTS ( 1.000000000000000000, 0.000000000000000000, 0.000000000000000000, 0.000000000000000000, 0.000000000000000000, 0.000000000000000000, 0.000000000000000000 ) ;
#121 = EDGE_CURVE ( 'NONE', #78, #27, #122, .T. ) ;
#122 = LINE ( 'NONE', #200, #4 ) ;
#123 = VECTOR ( 'NONE', #137, 39.37007874015748143 ) ;
#124 = DIRECTION ( 'NONE',  ( -0.000000000000000000, 1.000000000000000000, 4.097771990496395814E-16 ) ) ;
#125 = PERSON_AND_ORGANIZATION ( #5, #84 ) ;
#126 = DIRECTION ( 'NONE',  ( -0.7071067811865487940, 1.307104303188642876E-16, 0.7071067811865463515 ) ) ;
#127 = DIRECTION ( 'NONE',  ( 0.7071067811865486830, 1.200209628260102044E-16, 0.7071067811865462405 ) ) ;
#128 = AXIS2_PLACEMENT_3D ( 'NONE', #60, #108, #168 ) ;
#129 = EDGE_CURVE ( 'NONE', #24, #180, #86, .T. ) ;
#130 = LOCAL_TIME ( 10, 12, 5.000000000000000000, #178 ) ;
#131 = PLANE ( 'NONE',  #103 ) ;
#132 = UNCERTAINTY_MEASURE_WITH_UNIT (LENGTH_MEASURE( 1.000000000000000082E-05 ), #141, 'distance_accuracy_value', 'NONE');
#133 = EDGE_LOOP ( 'NONE', ( #172, #75, #95 ) ) ;
#134 = DIRECTION ( 'NONE',  ( 0.7071067811865487940, 1.365923996832131609E-16, 0.7071067811865463515 ) ) ;
#135 = ADVANCED_FACE ( 'NONE', ( #201 ), #37, .T. ) ;
#136 = DIRECTION ( 'NONE',  ( -0.7071067811865486830, -2.614208606377285259E-16, 0.7071067811865462405 ) ) ;
#137 = DIRECTION ( 'NONE',  ( -1.856586254321782698E-15, 1.000000000000000000, 2.266363453371415771E-15 ) ) ;
#138 = AXIS2_PLACEMENT_3D ( 'NONE', #92, #63, #8 ) ;
#139 = ORIENTED_EDGE ( 'NONE', *, *, #129, .T. ) ;
#140 = DATE_AND_TIME ( #7, #53 ) ;
#141 =( CONVERSION_BASED_UNIT ( 'INCH', #151 ) LENGTH_UNIT ( ) NAMED_UNIT ( #120 ) );
#142 =( GEOMETRIC_REPRESENTATION_CONTEXT ( 3 ) GLOBAL_UNCERTAINTY_ASSIGNED_CONTEXT ( ( #132 ) ) GLOBAL_UNIT_ASSIGNED_CONTEXT ( ( #141, #191, #144 ) ) REPRESENTATION_CONTEXT ( 'NONE', 'WORKASPACE' ) );
#143 = DIRECTION ( 'NONE',  ( -0.7071067811865463515, 2.897562362236303877E-16, -0.7071067811865487940 ) ) ;
#144 =( NAMED_UNIT ( * ) SI_UNIT ( $, .STERADIAN. ) SOLID_ANGLE_UNIT ( ) );
#145 = EDGE_LOOP ( 'NONE', ( #181, #161, #43, #88 ) ) ;
#146 = CALENDAR_DATE ( 2024, 21, 1 ) ;
#147 = APPROVAL ( #44, 'UNSPECIFIED' ) ;
#148 = AXIS2_PLACEMENT_3D ( 'NONE', #210, #13, #54 ) ;
#149 = PLANE ( 'NONE',  #175 ) ;
#150 = ADVANCED_FACE ( 'NONE', ( #18 ), #149, .T. ) ;
#151 = LENGTH_MEASURE_WITH_UNIT ( LENGTH_MEASURE( 0.02539999999999999897 ), #79 );
#152 = ORIENTED_EDGE ( 'NONE', *, *, #64, .T. ) ;
#153 = DIRECTION ( 'NONE',  ( -0.000000000000000000, 1.000000000000000000, 4.097771990496395814E-16 ) ) ;
#154 = AXIS2_PLACEMENT_3D ( 'NONE', #3, #153, #187 ) ;
#155 = DIRECTION ( 'NONE',  ( 0.7071067811865463515, -2.897562362236303877E-16, 0.7071067811865487940 ) ) ;
#156 = EDGE_CURVE ( 'NONE', #27, #186, #38, .T. ) ;
#157 = CARTESIAN_POINT ( 'NONE',  ( 0.000000000000000000, -1.414213562373096256, -1.414213562373093369 ) ) ;
#158 = DATE_AND_TIME ( #204, #205 ) ;
#159 = PERSON_AND_ORGANIZATION ( #5, #84 ) ;
#160 = DIRECTION ( 'NONE',  ( -0.7071067811865486830, -2.731847993664262725E-16, 0.7071067811865462405 ) ) ;
#161 = ORIENTED_EDGE ( 'NONE', *, *, #121, .F. ) ;
#162 = VECTOR ( 'NONE', #213, 39.37007874015748854 ) ;
#163 = FACE_OUTER_BOUND ( 'NONE', #133, .T. ) ;
#164 = APPROVAL_PERSON_ORGANIZATION ( #125, #147, #111 ) ;
#165 = DIRECTION ( 'NONE',  ( 0.7071067811865463515, -2.897562362236303877E-16, 0.7071067811865487940 ) ) ;
#166 = CARTESIAN_POINT ( 'NONE',  ( 0.000000000000000000, 0.5857864376269035223, -1.414213562373092703 ) ) ;
#167 = CC_DESIGN_PERSON_AND_ORGANIZATION_ASSIGNMENT ( #117, #70, ( #6 ) ) ;
#168 = DIRECTION ( 'NONE',  ( 0.000000000000000000, 4.097771990496395814E-16, -1.000000000000000000 ) ) ;
#169 = DIRECTION ( 'NONE',  ( 0.000000000000000000, -3.921312909565927395E-16, 1.000000000000000000 ) ) ;
#170 = EDGE_CURVE ( 'NONE', #180, #107, #28, .T. ) ;
#171 = CARTESIAN_POINT ( 'NONE',  ( 1.414213562373097810, -1.414213562373091815, -5.463695987328526437E-16 ) ) ;
#172 = ORIENTED_EDGE ( 'NONE', *, *, #170, .F. ) ;
#173 = CARTESIAN_POINT ( 'NONE',  ( 0.000000000000000000, -1.414213562373090705, -1.414213562373093369 ) ) ;
#174 = APPROVAL_DATE_TIME ( #140, #188 ) ;
#175 = AXIS2_PLACEMENT_3D ( 'NONE', #62, #143, #109 ) ;
#176 = COORDINATED_UNIVERSAL_TIME_OFFSET ( 8, 0, .BEHIND. ) ;
#177 = APPLICATION_CONTEXT ( 'configuration controlled 3d designs of mechanical parts and assemblies' ) ;
#178 = COORDINATED_UNIVERSAL_TIME_OFFSET ( 8, 0, .BEHIND. ) ;
#179 = SECURITY_CLASSIFICATION_LEVEL ( 'unclassified' ) ;
#180 = VERTEX_POINT ( 'NONE', #87 ) ;
#181 = ORIENTED_EDGE ( 'NONE', *, *, #46, .F. ) ;
#182 = CARTESIAN_POINT ( 'NONE',  ( 1.477853172679886917, -1.414213562373091371, 0.06363961030678848274 ) ) ;
#183 = CIRCLE ( 'NONE', #208, 2.089999999999999858 ) ;
#184 = DIRECTION ( 'NONE',  ( 0.7071067811865486830, -6.190794282079936480E-15, -0.7071067811865462405 ) ) ;
#185 = CC_DESIGN_DATE_AND_TIME_ASSIGNMENT ( #158, #74, ( #11 ) ) ;
#186 = VERTEX_POINT ( 'NONE', #171 ) ;
#187 = DIRECTION ( 'NONE',  ( 0.000000000000000000, -4.097771990496393842E-16, 1.000000000000000000 ) ) ;
#188 = APPROVAL ( #47, 'UNSPECIFIED' ) ;
#189 = DIRECTION ( 'NONE',  ( 1.000000000000000000, 0.000000000000000000, 0.000000000000000000 ) ) ;
#190 = FACE_OUTER_BOUND ( 'NONE', #20, .T. ) ;
#191 =( NAMED_UNIT ( * ) PLANE_ANGLE_UNIT ( ) SI_UNIT ( $, .RADIAN. ) );
#192 = AXIS2_PLACEMENT_3D ( 'NONE', #80, #195, #160 ) ;
#193 = CC_DESIGN_APPROVAL ( #147, ( #82 ) ) ;
#194 = EDGE_CURVE ( 'NONE', #180, #78, #183, .T. ) ;
#195 = DIRECTION ( 'NONE',  ( 0.7071067811865462405, -2.897562362236303877E-16, 0.7071067811865487940 ) ) ;
#196 = CALENDAR_DATE ( 2024, 21, 1 ) ;
#197 = CARTESIAN_POINT ( 'NONE',  ( 0.000000000000000000, 0.5857864376269035223, -1.414213562373092703 ) ) ;
#198 = APPLICATION_CONTEXT ( 'configuration controlled 3d designs of mechanical parts and assemblies' ) ;
#199 = CARTESIAN_POINT ( 'NONE',  ( 0.000000000000000000, -1.414213562373096256, -1.414213562373093369 ) ) ;
#200 = CARTESIAN_POINT ( 'NONE',  ( -1.414213562373097810, -1.414213562373091815, -5.463695987328526437E-16 ) ) ;
#201 = FACE_OUTER_BOUND ( 'NONE', #2, .T. ) ;
#202 = CIRCLE ( 'NONE', #51, 2.000000000000000000 ) ;
#203 = ORIENTED_EDGE ( 'NONE', *, *, #209, .F. ) ;
#204 = CALENDAR_DATE ( 2024, 21, 1 ) ;
#205 = LOCAL_TIME ( 10, 12, 5.000000000000000000, #97 ) ;
#206 = APPROVAL ( #30, 'UNSPECIFIED' ) ;
#207 = PRODUCT ( '400406', '400406', '', ( #49 ) ) ;
#208 = AXIS2_PLACEMENT_3D ( 'NONE', #77, #155, #126 ) ;
#209 = EDGE_CURVE ( 'NONE', #78, #107, #61, .T. ) ;
#210 = CARTESIAN_POINT ( 'NONE',  ( 0.000000000000000000, -1.414213562373096256, -1.414213562373093369 ) ) ;
#211 = DIRECTION ( 'NONE',  ( -0.7071067811865463515, -2.897562362236303877E-16, 0.7071067811865487940 ) ) ;
#212 = CC_DESIGN_APPROVAL ( #188, ( #11 ) ) ;
#213 = DIRECTION ( 'NONE',  ( -0.7071067811865486830, -6.190794282079936480E-15, -0.7071067811865462405 ) ) ;
ENDSEC;
END-ISO-10303-21;
