ISO-10303-21;
HEADER;
FILE_DESCRIPTION (( 'STEP AP203' ),
    '1' );
FILE_NAME ('400407.STEP',
    '2024-01-21T18:14:17',
    ( '' ),
    ( '' ),
    'SwSTEP 2.0',
    'SolidWorks 2021',
    '' );
FILE_SCHEMA (( 'CONFIG_CONTROL_DESIGN' ));
ENDSEC;

DATA;
#1 = COORDINATED_UNIVERSAL_TIME_OFFSET ( 8, 0, .BEHIND. ) ;
#2 = CC_DESIGN_PERSON_AND_ORGANIZATION_ASSIGNMENT ( #16, #137, ( #164 ) ) ;
#3 = DIRECTION ( 'NONE',  ( 0.000000000000000000, -3.893370062229352951E-16, 1.000000000000000000 ) ) ;
#4 = EDGE_LOOP ( 'NONE', ( #168, #131, #149, #58 ) ) ;
#5 = CIRCLE ( 'NONE', #120, 2.105000000000000426 ) ;
#6 = CARTESIAN_POINT ( 'NONE',  ( 1.414213562373097810, -1.414213562373091815, -5.463695987328526437E-16 ) ) ;
#7 = FACE_OUTER_BOUND ( 'NONE', #201, .T. ) ;
#8 = CC_DESIGN_APPROVAL ( #130, ( #126 ) ) ;
#9 = DIRECTION ( 'NONE',  ( 0.000000000000000000, 0.000000000000000000, 1.000000000000000000 ) ) ;
#10 = ADVANCED_FACE ( 'NONE', ( #174 ), #76, .F. ) ;
#11 = DIRECTION ( 'NONE',  ( -0.7071067811865487940, 1.365923996832131609E-16, 0.7071067811865463515 ) ) ;
#12 = PERSON_AND_ORGANIZATION ( #51, #25 ) ;
#13 = CARTESIAN_POINT ( 'NONE',  ( -2.731847993664263218E-16, 0.6907864376269038376, -1.414213562373092481 ) ) ;
#14 = FACE_OUTER_BOUND ( 'NONE', #4, .T. ) ;
#15 = CC_DESIGN_APPROVAL ( #181, ( #39 ) ) ;
#16 = PERSON_AND_ORGANIZATION ( #51, #25 ) ;
#17 = CALENDAR_DATE ( 2024, 21, 1 ) ;
#18 = DIRECTION ( 'NONE',  ( 0.7071067811865462405, -2.897562362236303877E-16, 0.7071067811865487940 ) ) ;
#19 = DIRECTION ( 'NONE',  ( 0.000000000000000000, 4.097771990496395814E-16, -1.000000000000000000 ) ) ;
#20 = EDGE_CURVE ( 'NONE', #183, #60, #129, .T. ) ;
#21 = PRODUCT_DEFINITION_SHAPE ( 'NONE', 'NONE',  #165 ) ;
#22 = FACE_OUTER_BOUND ( 'NONE', #26, .T. ) ;
#23 = DIRECTION ( 'NONE',  ( 0.7071067811865462405, -2.897562362236303384E-16, 0.7071067811865489050 ) ) ;
#24 = ORIENTED_EDGE ( 'NONE', *, *, #52, .T. ) ;
#25 = ORGANIZATION ( 'UNSPECIFIED', 'UNSPECIFIED', '' ) ;
#26 = EDGE_LOOP ( 'NONE', ( #146, #107, #117, #43 ) ) ;
#27 = APPROVAL_STATUS ( 'not_yet_approved' ) ;
#28 = EDGE_CURVE ( 'NONE', #115, #40, #29, .T. ) ;
#29 = LINE ( 'NONE', #50, #180 ) ;
#30 = CALENDAR_DATE ( 2024, 21, 1 ) ;
#31 = DIRECTION ( 'NONE',  ( -0.7071067811865486830, -2.731847993664262725E-16, 0.7071067811865462405 ) ) ;
#32 = CARTESIAN_POINT ( 'NONE',  ( 0.000000000000000000, -1.414213562373096256, -1.414213562373093369 ) ) ;
#33 = EDGE_CURVE ( 'NONE', #183, #115, #61, .T. ) ;
#34 = APPLICATION_PROTOCOL_DEFINITION ( 'international standard', 'config_control_design', 1994, #152 ) ;
#35 = DIRECTION ( 'NONE',  ( -0.000000000000000000, 1.000000000000000000, 4.097771990496395814E-16 ) ) ;
#36 = APPROVAL_PERSON_ORGANIZATION ( #12, #171, #194 ) ;
#37 = MECHANICAL_CONTEXT ( 'NONE', #84, 'mechanical' ) ;
#38 = AXIS2_PLACEMENT_3D ( 'NONE', #148, #87, #182 ) ;
#39 = PRODUCT_DEFINITION_FORMATION_WITH_SPECIFIED_SOURCE ( 'ANY', '', #164, .NOT_KNOWN. ) ;
#40 = VERTEX_POINT ( 'NONE', #13 ) ;
#41 = DIRECTION ( 'NONE',  ( -0.7071067811865487940, -2.595580041486235301E-16, 0.7071067811865462405 ) ) ;
#42 = AXIS2_PLACEMENT_3D ( 'NONE', #138, #18, #31 ) ;
#43 = ORIENTED_EDGE ( 'NONE', *, *, #167, .F. ) ;
#44 = PRODUCT_RELATED_PRODUCT_CATEGORY ( 'detail', '', ( #164 ) ) ;
#45 = DATE_AND_TIME ( #17, #161 ) ;
#46 = CARTESIAN_POINT ( 'NONE',  ( -1.488459774397685731, -1.414213562373091371, 0.07424621202458674130 ) ) ;
#47 = COORDINATED_UNIVERSAL_TIME_OFFSET ( 8, 0, .BEHIND. ) ;
#48 = CARTESIAN_POINT ( 'NONE',  ( 0.000000000000000000, -1.414213562373096256, -1.414213562373093369 ) ) ;
#49 = AXIS2_PLACEMENT_3D ( 'NONE', #123, #109, #94 ) ;
#50 = CARTESIAN_POINT ( 'NONE',  ( 0.000000000000000000, 0.5857864376269035223, -1.414213562373092703 ) ) ;
#51 = PERSON ( 'UNSPECIFIED', 'UNSPECIFIED', 'UNSPECIFIED', ('UNSPECIFIED'), ('UNSPECIFIED'), ('UNSPECIFIED') ) ;
#52 = EDGE_CURVE ( 'NONE', #40, #79, #147, .T. ) ;
#53 = ORIENTED_EDGE ( 'NONE', *, *, #52, .F. ) ;
#54 = DIRECTION ( 'NONE',  ( 0.7071067811865486830, -5.323540950757933957E-15, -0.7071067811865462405 ) ) ;
#55 = ORIENTED_EDGE ( 'NONE', *, *, #99, .F. ) ;
#56 = CC_DESIGN_DATE_AND_TIME_ASSIGNMENT ( #45, #104, ( #126 ) ) ;
#57 = PERSON_AND_ORGANIZATION ( #51, #25 ) ;
#58 = ORIENTED_EDGE ( 'NONE', *, *, #167, .T. ) ;
#59 = DIRECTION ( 'NONE',  ( 0.7071067811865486830, 1.200209628260102044E-16, 0.7071067811865462405 ) ) ;
#60 = VERTEX_POINT ( 'NONE', #134 ) ;
#61 = CIRCLE ( 'NONE', #212, 2.000000000000000000 ) ;
#62 = DIRECTION ( 'NONE',  ( 1.000000000000000000, 0.000000000000000000, 0.000000000000000000 ) ) ;
#63 = CARTESIAN_POINT ( 'NONE',  ( 0.000000000000000000, -1.414213562373091371, -1.414213562373093369 ) ) ;
#64 = PERSON_AND_ORGANIZATION_ROLE ( 'design_supplier' ) ;
#65 = ADVANCED_FACE ( 'NONE', ( #14 ), #208, .F. ) ;
#66 = LOCAL_TIME ( 10, 14, 17.00000000000000000, #1 ) ;
#67 = UNCERTAINTY_MEASURE_WITH_UNIT (LENGTH_MEASURE( 1.000000000000000082E-05 ), #203, 'distance_accuracy_value', 'NONE');
#68 = LOCAL_TIME ( 10, 14, 17.00000000000000000, #108 ) ;
#69 = CARTESIAN_POINT ( 'NONE',  ( -1.414213562373097810, -1.414213562373091593, -5.463695987328525451E-16 ) ) ;
#70 = DIMENSIONAL_EXPONENTS ( 1.000000000000000000, 0.000000000000000000, 0.000000000000000000, 0.000000000000000000, 0.000000000000000000, 0.000000000000000000, 0.000000000000000000 ) ;
#71 = DIRECTION ( 'NONE',  ( -0.7071067811865486830, -5.323540950757933957E-15, -0.7071067811865462405 ) ) ;
#72 = LINE ( 'NONE', #200, #166 ) ;
#73 = DATE_TIME_ROLE ( 'creation_date' ) ;
#74 = DIRECTION ( 'NONE',  ( 0.7071067811865463515, -2.897562362236303877E-16, 0.7071067811865487940 ) ) ;
#75 = DATE_AND_TIME ( #92, #68 ) ;
#76 = SPHERICAL_SURFACE ( 'NONE', #42, 2.000000000000000000 ) ;
#77 = CC_DESIGN_PERSON_AND_ORGANIZATION_ASSIGNMENT ( #135, #209, ( #39 ) ) ;
#78 = CALENDAR_DATE ( 2024, 21, 1 ) ;
#79 = VERTEX_POINT ( 'NONE', #46 ) ;
#80 =( LENGTH_UNIT ( ) NAMED_UNIT ( * ) SI_UNIT ( $, .METRE. ) );
#81 = DATE_AND_TIME ( #111, #66 ) ;
#82 = PLANE ( 'NONE',  #124 ) ;
#83 = AXIS2_PLACEMENT_3D ( 'NONE', #89, #9, #62 ) ;
#84 = APPLICATION_CONTEXT ( 'configuration controlled 3d designs of mechanical parts and assemblies' ) ;
#85 = CARTESIAN_POINT ( 'NONE',  ( 0.000000000000000000, -1.414213562373096256, -1.414213562373093369 ) ) ;
#86 = PLANE ( 'NONE',  #38 ) ;
#87 = DIRECTION ( 'NONE',  ( -0.7071067811865463515, 2.897562362236303877E-16, -0.7071067811865487940 ) ) ;
#88 = ORIENTED_EDGE ( 'NONE', *, *, #91, .F. ) ;
#89 = CARTESIAN_POINT ( 'NONE',  ( 0.000000000000000000, 0.000000000000000000, 0.000000000000000000 ) ) ;
#90 = CARTESIAN_POINT ( 'NONE',  ( 0.000000000000000000, -1.414213562373096256, -1.414213562373093369 ) ) ;
#91 = EDGE_CURVE ( 'NONE', #60, #115, #154, .T. ) ;
#92 = CALENDAR_DATE ( 2024, 21, 1 ) ;
#93 = APPROVAL_ROLE ( '' ) ;
#94 = DIRECTION ( 'NONE',  ( 0.7071067811865487940, 1.365923996832131609E-16, 0.7071067811865463515 ) ) ;
#95 = VECTOR ( 'NONE', #71, 39.37007874015748854 ) ;
#96 =( NAMED_UNIT ( * ) SI_UNIT ( $, .STERADIAN. ) SOLID_ANGLE_UNIT ( ) );
#97 = CARTESIAN_POINT ( 'NONE',  ( 1.488459774397685287, -1.414213562373091371, 0.07424621202458686620 ) ) ;
#98 = DESIGN_CONTEXT ( 'detailed design', #152, 'design' ) ;
#99 = EDGE_CURVE ( 'NONE', #40, #101, #5, .T. ) ;
#100 = LOCAL_TIME ( 10, 14, 17.00000000000000000, #207 ) ;
#101 = VERTEX_POINT ( 'NONE', #97 ) ;
#102 = AXIS2_PLACEMENT_3D ( 'NONE', #63, #35, #197 ) ;
#103 = ORIENTED_EDGE ( 'NONE', *, *, #33, .F. ) ;
#104 = DATE_TIME_ROLE ( 'classification_date' ) ;
#105 = APPROVAL_STATUS ( 'not_yet_approved' ) ;
#106 = COORDINATED_UNIVERSAL_TIME_OFFSET ( 8, 0, .BEHIND. ) ;
#107 = ORIENTED_EDGE ( 'NONE', *, *, #190, .T. ) ;
#108 = COORDINATED_UNIVERSAL_TIME_OFFSET ( 8, 0, .BEHIND. ) ;
#109 = DIRECTION ( 'NONE',  ( -0.7071067811865463515, -2.897562362236303384E-16, 0.7071067811865487940 ) ) ;
#110 = DIRECTION ( 'NONE',  ( 0.7071067811865463515, 2.897562362236303384E-16, -0.7071067811865487940 ) ) ;
#111 = CALENDAR_DATE ( 2024, 21, 1 ) ;
#112 = SHAPE_DEFINITION_REPRESENTATION ( #21, #179 ) ;
#113 = CC_DESIGN_PERSON_AND_ORGANIZATION_ASSIGNMENT ( #57, #155, ( #165 ) ) ;
#114 = CARTESIAN_POINT ( 'NONE',  ( 0.000000000000000000, -1.414213562373090705, -1.414213562373093369 ) ) ;
#115 = VERTEX_POINT ( 'NONE', #163 ) ;
#116 = AXIS2_PLACEMENT_3D ( 'NONE', #204, #211, #59 ) ;
#117 = ORIENTED_EDGE ( 'NONE', *, *, #20, .T. ) ;
#118 = CC_DESIGN_PERSON_AND_ORGANIZATION_ASSIGNMENT ( #188, #64, ( #39 ) ) ;
#119 = APPROVAL_DATE_TIME ( #158, #171 ) ;
#120 = AXIS2_PLACEMENT_3D ( 'NONE', #48, #110, #176 ) ;
#121 = APPLICATION_PROTOCOL_DEFINITION ( 'international standard', 'config_control_design', 1994, #84 ) ;
#122 = PERSON_AND_ORGANIZATION ( #51, #25 ) ;
#123 = CARTESIAN_POINT ( 'NONE',  ( 0.000000000000000000, -1.414213562373096256, -1.414213562373093369 ) ) ;
#124 = AXIS2_PLACEMENT_3D ( 'NONE', #69, #144, #19 ) ;
#125 = ADVANCED_FACE ( 'NONE', ( #22 ), #82, .T. ) ;
#126 = SECURITY_CLASSIFICATION ( '', '', #192 ) ;
#127 = CARTESIAN_POINT ( 'NONE',  ( -1.414213562373097810, -1.414213562373091815, -5.463695987328526437E-16 ) ) ;
#128 = ORIENTED_EDGE ( 'NONE', *, *, #20, .F. ) ;
#129 = CIRCLE ( 'NONE', #102, 2.000000000000000444 ) ;
#130 = APPROVAL ( #27, 'UNSPECIFIED' ) ;
#131 = ORIENTED_EDGE ( 'NONE', *, *, #28, .T. ) ;
#132 = ADVANCED_FACE ( 'NONE', ( #213 ), #86, .T. ) ;
#133 = APPROVAL_ROLE ( '' ) ;
#134 = CARTESIAN_POINT ( 'NONE',  ( 1.414213562373097810, -1.414213562373091815, -5.463695987328526437E-16 ) ) ;
#135 = PERSON_AND_ORGANIZATION ( #51, #25 ) ;
#136 = MANIFOLD_SOLID_BREP ( 'Revolve1', #177 ) ;
#137 = PERSON_AND_ORGANIZATION_ROLE ( 'design_owner' ) ;
#138 = CARTESIAN_POINT ( 'NONE',  ( 0.000000000000000000, -1.414213562373096256, -1.414213562373093369 ) ) ;
#139 = CC_DESIGN_APPROVAL ( #171, ( #165 ) ) ;
#140 = APPROVAL_DATE_TIME ( #162, #181 ) ;
#141 = EDGE_LOOP ( 'NONE', ( #128, #185, #88 ) ) ;
#142 = APPROVAL_DATE_TIME ( #81, #130 ) ;
#143 = ADVANCED_FACE ( 'NONE', ( #7 ), #184, .T. ) ;
#144 = DIRECTION ( 'NONE',  ( 0.000000000000000000, -1.000000000000000000, -4.097771990496395814E-16 ) ) ;
#145 = DIRECTION ( 'NONE',  ( -0.000000000000000000, 1.000000000000000000, 4.097771990496395814E-16 ) ) ;
#146 = ORIENTED_EDGE ( 'NONE', *, *, #210, .F. ) ;
#147 = CIRCLE ( 'NONE', #191, 2.105000000000000426 ) ;
#148 = CARTESIAN_POINT ( 'NONE',  ( 0.000000000000000000, -1.414213562373096256, -1.414213562373093369 ) ) ;
#149 = ORIENTED_EDGE ( 'NONE', *, *, #99, .T. ) ;
#150 = ORIENTED_EDGE ( 'NONE', *, *, #28, .F. ) ;
#151 = CC_DESIGN_PERSON_AND_ORGANIZATION_ASSIGNMENT ( #122, #196, ( #126 ) ) ;
#152 = APPLICATION_CONTEXT ( 'configuration controlled 3d designs of mechanical parts and assemblies' ) ;
#153 = ORIENTED_EDGE ( 'NONE', *, *, #210, .T. ) ;
#154 = CIRCLE ( 'NONE', #49, 2.000000000000000000 ) ;
#155 = PERSON_AND_ORGANIZATION_ROLE ( 'creator' ) ;
#156 = APPROVAL_PERSON_ORGANIZATION ( #172, #130, #133 ) ;
#157 = DIRECTION ( 'NONE',  ( -0.7071067811865463515, 2.897562362236303877E-16, -0.7071067811865487940 ) ) ;
#158 = DATE_AND_TIME ( #30, #100 ) ;
#159 = APPROVAL_STATUS ( 'not_yet_approved' ) ;
#160 = PERSON_AND_ORGANIZATION ( #51, #25 ) ;
#161 = LOCAL_TIME ( 10, 14, 17.00000000000000000, #106 ) ;
#162 = DATE_AND_TIME ( #78, #198 ) ;
#163 = CARTESIAN_POINT ( 'NONE',  ( 0.000000000000000000, 0.5857864376269035223, -1.414213562373092703 ) ) ;
#164 = PRODUCT ( '400407', '400407', '', ( #37 ) ) ;
#165 = PRODUCT_DEFINITION ( 'UNKNOWN', '', #39, #98 ) ;
#166 = VECTOR ( 'NONE', #54, 39.37007874015748854 ) ;
#167 = EDGE_CURVE ( 'NONE', #101, #60, #170, .T. ) ;
#168 = ORIENTED_EDGE ( 'NONE', *, *, #91, .T. ) ;
#169 = APPROVAL_PERSON_ORGANIZATION ( #160, #181, #93 ) ;
#170 = LINE ( 'NONE', #6, #95 ) ;
#171 = APPROVAL ( #105, 'UNSPECIFIED' ) ;
#172 = PERSON_AND_ORGANIZATION ( #51, #25 ) ;
#173 = DIRECTION ( 'NONE',  ( -0.7071067811865486830, 1.297790020743117650E-16, 0.7071067811865462405 ) ) ;
#174 = FACE_OUTER_BOUND ( 'NONE', #141, .T. ) ;
#175 = AXIS2_PLACEMENT_3D ( 'NONE', #85, #23, #41 ) ;
#176 = DIRECTION ( 'NONE',  ( 0.7071067811865486830, 1.297790020743117650E-16, 0.7071067811865462405 ) ) ;
#177 = CLOSED_SHELL ( 'NONE', ( #10, #125, #143, #132, #65 ) ) ;
#178 = CIRCLE ( 'NONE', #186, 2.105000000000000426 ) ;
#179 = ADVANCED_BREP_SHAPE_REPRESENTATION ( '400407', ( #136, #83 ), #206 ) ;
#180 = VECTOR ( 'NONE', #195, 39.37007874015748143 ) ;
#181 = APPROVAL ( #159, 'UNSPECIFIED' ) ;
#182 = DIRECTION ( 'NONE',  ( -0.7071067811865486830, 1.200209628260102537E-16, 0.7071067811865462405 ) ) ;
#183 = VERTEX_POINT ( 'NONE', #127 ) ;
#184 = SPHERICAL_SURFACE ( 'NONE', #175, 2.104999999999999982 ) ;
#185 = ORIENTED_EDGE ( 'NONE', *, *, #33, .T. ) ;
#186 = AXIS2_PLACEMENT_3D ( 'NONE', #114, #145, #3 ) ;
#187 = EDGE_LOOP ( 'NONE', ( #103, #202, #53, #150 ) ) ;
#188 = PERSON_AND_ORGANIZATION ( #51, #25 ) ;
#189 = LENGTH_MEASURE_WITH_UNIT ( LENGTH_MEASURE( 0.02539999999999999897 ), #80 );
#190 = EDGE_CURVE ( 'NONE', #79, #183, #72, .T. ) ;
#191 = AXIS2_PLACEMENT_3D ( 'NONE', #32, #74, #173 ) ;
#192 = SECURITY_CLASSIFICATION_LEVEL ( 'unclassified' ) ;
#193 = CC_DESIGN_SECURITY_CLASSIFICATION ( #126, ( #39 ) ) ;
#194 = APPROVAL_ROLE ( '' ) ;
#195 = DIRECTION ( 'NONE',  ( -1.549965898529580794E-15, 1.000000000000000000, 1.959743097579215050E-15 ) ) ;
#196 = PERSON_AND_ORGANIZATION_ROLE ( 'classification_officer' ) ;
#197 = DIRECTION ( 'NONE',  ( 0.000000000000000000, -4.097771990496393842E-16, 1.000000000000000000 ) ) ;
#198 = LOCAL_TIME ( 10, 14, 17.00000000000000000, #47 ) ;
#199 = CC_DESIGN_DATE_AND_TIME_ASSIGNMENT ( #75, #73, ( #165 ) ) ;
#200 = CARTESIAN_POINT ( 'NONE',  ( -1.414213562373097810, -1.414213562373091815, -5.463695987328526437E-16 ) ) ;
#201 = EDGE_LOOP ( 'NONE', ( #55, #24, #153 ) ) ;
#202 = ORIENTED_EDGE ( 'NONE', *, *, #190, .F. ) ;
#203 =( CONVERSION_BASED_UNIT ( 'INCH', #189 ) LENGTH_UNIT ( ) NAMED_UNIT ( #70 ) );
#204 = CARTESIAN_POINT ( 'NONE',  ( 0.000000000000000000, -1.414213562373096256, -1.414213562373093369 ) ) ;
#205 =( NAMED_UNIT ( * ) PLANE_ANGLE_UNIT ( ) SI_UNIT ( $, .RADIAN. ) );
#206 =( GEOMETRIC_REPRESENTATION_CONTEXT ( 3 ) GLOBAL_UNCERTAINTY_ASSIGNED_CONTEXT ( ( #67 ) ) GLOBAL_UNIT_ASSIGNED_CONTEXT ( ( #203, #205, #96 ) ) REPRESENTATION_CONTEXT ( 'NONE', 'WORKASPACE' ) );
#207 = COORDINATED_UNIVERSAL_TIME_OFFSET ( 8, 0, .BEHIND. ) ;
#208 = PLANE ( 'NONE',  #116 ) ;
#209 = PERSON_AND_ORGANIZATION_ROLE ( 'creator' ) ;
#210 = EDGE_CURVE ( 'NONE', #79, #101, #178, .T. ) ;
#211 = DIRECTION ( 'NONE',  ( -0.7071067811865463515, -2.897562362236303877E-16, 0.7071067811865487940 ) ) ;
#212 = AXIS2_PLACEMENT_3D ( 'NONE', #90, #157, #11 ) ;
#213 = FACE_OUTER_BOUND ( 'NONE', #187, .T. ) ;
ENDSEC;
END-ISO-10303-21;
