ISO-10303-21;
HEADER;
FILE_DESCRIPTION (( 'STEP AP203' ),
    '1' );
FILE_NAME ('400409.STEP',
    '2024-01-21T18:17:54',
    ( '' ),
    ( '' ),
    'SwSTEP 2.0',
    'SolidWorks 2021',
    '' );
FILE_SCHEMA (( 'CONFIG_CONTROL_DESIGN' ));
ENDSEC;

DATA;
#1 = CC_DESIGN_PERSON_AND_ORGANIZATION_ASSIGNMENT ( #123, #163, ( #87 ) ) ;
#2 = APPLICATION_CONTEXT ( 'configuration controlled 3d designs of mechanical parts and assemblies' ) ;
#3 = VERTEX_POINT ( 'NONE', #206 ) ;
#4 = ADVANCED_FACE ( 'NONE', ( #204 ), #78, .T. ) ;
#5 = AXIS2_PLACEMENT_3D ( 'NONE', #83, #196, #8 ) ;
#6 = ORIENTED_EDGE ( 'NONE', *, *, #23, .F. ) ;
#7 = PRODUCT_DEFINITION_SHAPE ( 'NONE', 'NONE',  #77 ) ;
#8 = DIRECTION ( 'NONE',  ( 0.7071067811865487940, 1.279554095393097433E-16, 0.7071067811865462405 ) ) ;
#9 = CARTESIAN_POINT ( 'NONE',  ( 0.000000000000000000, -1.414213562373096256, -1.414213562373093369 ) ) ;
#10 = AXIS2_PLACEMENT_3D ( 'NONE', #15, #151, #27 ) ;
#11 = DIRECTION ( 'NONE',  ( 0.7071067811865463515, -2.897562362236303384E-16, 0.7071067811865486830 ) ) ;
#12 = APPROVAL_PERSON_ORGANIZATION ( #60, #51, #122 ) ;
#13 = CALENDAR_DATE ( 2024, 21, 1 ) ;
#14 = LOCAL_TIME ( 10, 17, 54.00000000000000000, #145 ) ;
#15 = CARTESIAN_POINT ( 'NONE',  ( 0.000000000000000000, -1.414213562373090705, -1.414213562373093369 ) ) ;
#16 = MANIFOLD_SOLID_BREP ( 'Revolve1', #171 ) ;
#17 = DIRECTION ( 'NONE',  ( -0.7071067811865486830, -2.731847993664262725E-16, 0.7071067811865462405 ) ) ;
#18 = DIMENSIONAL_EXPONENTS ( 1.000000000000000000, 0.000000000000000000, 0.000000000000000000, 0.000000000000000000, 0.000000000000000000, 0.000000000000000000, 0.000000000000000000 ) ;
#19 = CC_DESIGN_APPROVAL ( #194, ( #111 ) ) ;
#20 = ORIENTED_EDGE ( 'NONE', *, *, #141, .T. ) ;
#21 = VERTEX_POINT ( 'NONE', #162 ) ;
#22 = ORIENTED_EDGE ( 'NONE', *, *, #179, .F. ) ;
#23 = EDGE_CURVE ( 'NONE', #59, #200, #183, .T. ) ;
#24 = ORIENTED_EDGE ( 'NONE', *, *, #154, .F. ) ;
#25 = COORDINATED_UNIVERSAL_TIME_OFFSET ( 8, 0, .BEHIND. ) ;
#26 = DIRECTION ( 'NONE',  ( 0.000000000000000000, 4.097771990496395814E-16, -1.000000000000000000 ) ) ;
#27 = DIRECTION ( 'NONE',  ( 0.000000000000000000, -3.838662286179291560E-16, 1.000000000000000000 ) ) ;
#28 = PERSON_AND_ORGANIZATION ( #72, #212 ) ;
#29 = DIRECTION ( 'NONE',  ( -0.7071067811865463515, 2.897562362236303877E-16, -0.7071067811865487940 ) ) ;
#30 = CC_DESIGN_DATE_AND_TIME_ASSIGNMENT ( #186, #100, ( #77 ) ) ;
#31 = DATE_AND_TIME ( #13, #130 ) ;
#32 = FACE_OUTER_BOUND ( 'NONE', #202, .T. ) ;
#33 = APPLICATION_CONTEXT ( 'configuration controlled 3d designs of mechanical parts and assemblies' ) ;
#34 = CC_DESIGN_PERSON_AND_ORGANIZATION_ASSIGNMENT ( #70, #132, ( #89 ) ) ;
#35 = DESIGN_CONTEXT ( 'detailed design', #2, 'design' ) ;
#36 = ADVANCED_BREP_SHAPE_REPRESENTATION ( '400409', ( #16, #114 ), #108 ) ;
#37 = PERSON_AND_ORGANIZATION_ROLE ( 'design_supplier' ) ;
#38 = CARTESIAN_POINT ( 'NONE',  ( 1.414213562373097810, -1.414213562373091815, -5.463695987328526437E-16 ) ) ;
#39 = AXIS2_PLACEMENT_3D ( 'NONE', #102, #29, #47 ) ;
#40 = ORIENTED_EDGE ( 'NONE', *, *, #179, .T. ) ;
#41 = EDGE_CURVE ( 'NONE', #21, #59, #52, .T. ) ;
#42 = EDGE_LOOP ( 'NONE', ( #127, #62, #198, #105 ) ) ;
#43 = APPROVAL_PERSON_ORGANIZATION ( #48, #54, #65 ) ;
#44 = ORIENTED_EDGE ( 'NONE', *, *, #23, .T. ) ;
#45 = ORIENTED_EDGE ( 'NONE', *, *, #41, .F. ) ;
#46 = EDGE_CURVE ( 'NONE', #94, #21, #153, .T. ) ;
#47 = DIRECTION ( 'NONE',  ( -0.7071067811865486830, 1.200209628260102537E-16, 0.7071067811865462405 ) ) ;
#48 = PERSON_AND_ORGANIZATION ( #72, #212 ) ;
#49 = DIRECTION ( 'NONE',  ( 0.7071067811865486830, 1.200209628260102044E-16, 0.7071067811865462405 ) ) ;
#50 = PERSON_AND_ORGANIZATION ( #72, #212 ) ;
#51 = APPROVAL ( #203, 'UNSPECIFIED' ) ;
#52 = LINE ( 'NONE', #101, #76 ) ;
#53 = CARTESIAN_POINT ( 'NONE',  ( -1.414213562373097810, -1.414213562373091593, -5.463695987328525451E-16 ) ) ;
#54 = APPROVAL ( #174, 'UNSPECIFIED' ) ;
#55 = COORDINATED_UNIVERSAL_TIME_OFFSET ( 8, 0, .BEHIND. ) ;
#56 = CC_DESIGN_APPROVAL ( #51, ( #77 ) ) ;
#57 = SPHERICAL_SURFACE ( 'NONE', #191, 2.000000000000000000 ) ;
#58 = CC_DESIGN_PERSON_AND_ORGANIZATION_ASSIGNMENT ( #116, #74, ( #111 ) ) ;
#59 = VERTEX_POINT ( 'NONE', #110 ) ;
#60 = PERSON_AND_ORGANIZATION ( #72, #212 ) ;
#61 = AXIS2_PLACEMENT_3D ( 'NONE', #53, #152, #26 ) ;
#62 = ORIENTED_EDGE ( 'NONE', *, *, #41, .T. ) ;
#63 = APPROVAL_DATE_TIME ( #199, #51 ) ;
#64 = ORIENTED_EDGE ( 'NONE', *, *, #197, .T. ) ;
#65 = APPROVAL_ROLE ( '' ) ;
#66 = ORIENTED_EDGE ( 'NONE', *, *, #46, .F. ) ;
#67 = VECTOR ( 'NONE', #190, 39.37007874015748854 ) ;
#68 = DIRECTION ( 'NONE',  ( -0.7071067811865486830, -2.559108190786194867E-16, 0.7071067811865463515 ) ) ;
#69 = CC_DESIGN_DATE_AND_TIME_ASSIGNMENT ( #193, #113, ( #111 ) ) ;
#70 = PERSON_AND_ORGANIZATION ( #72, #212 ) ;
#71 = CARTESIAN_POINT ( 'NONE',  ( 0.000000000000000000, -1.414213562373096256, -1.414213562373093369 ) ) ;
#72 = PERSON ( 'UNSPECIFIED', 'UNSPECIFIED', 'UNSPECIFIED', ('UNSPECIFIED'), ('UNSPECIFIED'), ('UNSPECIFIED') ) ;
#73 = LINE ( 'NONE', #38, #118 ) ;
#74 = PERSON_AND_ORGANIZATION_ROLE ( 'classification_officer' ) ;
#75 = ADVANCED_FACE ( 'NONE', ( #176 ), #167, .T. ) ;
#76 = VECTOR ( 'NONE', #173, 39.37007874015748143 ) ;
#77 = PRODUCT_DEFINITION ( 'UNKNOWN', '', #89, #35 ) ;
#78 = PLANE ( 'NONE',  #39 ) ;
#79 = LOCAL_TIME ( 10, 17, 54.00000000000000000, #188 ) ;
#80 = ORIENTED_EDGE ( 'NONE', *, *, #158, .T. ) ;
#81 = APPLICATION_PROTOCOL_DEFINITION ( 'international standard', 'config_control_design', 1994, #2 ) ;
#82 = ORIENTED_EDGE ( 'NONE', *, *, #107, .F. ) ;
#83 = CARTESIAN_POINT ( 'NONE',  ( 0.000000000000000000, -1.414213562373096256, -1.414213562373093369 ) ) ;
#84 = APPROVAL_DATE_TIME ( #98, #54 ) ;
#85 = LOCAL_TIME ( 10, 17, 54.00000000000000000, #25 ) ;
#86 = PLANE ( 'NONE',  #209 ) ;
#87 = PRODUCT ( '400409', '400409', '', ( #103 ) ) ;
#88 = FACE_OUTER_BOUND ( 'NONE', #157, .T. ) ;
#89 = PRODUCT_DEFINITION_FORMATION_WITH_SPECIFIED_SOURCE ( 'ANY', '', #87, .NOT_KNOWN. ) ;
#90 = SECURITY_CLASSIFICATION_LEVEL ( 'unclassified' ) ;
#91 = DIRECTION ( 'NONE',  ( -0.7071067811865463515, -2.897562362236303384E-16, 0.7071067811865487940 ) ) ;
#92 = LOCAL_TIME ( 10, 17, 54.00000000000000000, #55 ) ;
#93 = DIRECTION ( 'NONE',  ( 1.000000000000000000, 0.000000000000000000, 0.000000000000000000 ) ) ;
#94 = VERTEX_POINT ( 'NONE', #133 ) ;
#95 = AXIS2_PLACEMENT_3D ( 'NONE', #71, #109, #189 ) ;
#96 = CC_DESIGN_SECURITY_CLASSIFICATION ( #111, ( #89 ) ) ;
#97 = DIRECTION ( 'NONE',  ( 0.000000000000000000, -4.097771990496393842E-16, 1.000000000000000000 ) ) ;
#98 = DATE_AND_TIME ( #161, #85 ) ;
#99 = CARTESIAN_POINT ( 'NONE',  ( 0.000000000000000000, -1.414213562373096256, -1.414213562373093369 ) ) ;
#100 = DATE_TIME_ROLE ( 'creation_date' ) ;
#101 = CARTESIAN_POINT ( 'NONE',  ( 0.000000000000000000, 0.5857864376269035223, -1.414213562373092703 ) ) ;
#102 = CARTESIAN_POINT ( 'NONE',  ( 0.000000000000000000, -1.414213562373096256, -1.414213562373093369 ) ) ;
#103 = MECHANICAL_CONTEXT ( 'NONE', #33, 'mechanical' ) ;
#104 = CC_DESIGN_PERSON_AND_ORGANIZATION_ASSIGNMENT ( #50, #37, ( #89 ) ) ;
#105 = ORIENTED_EDGE ( 'NONE', *, *, #154, .T. ) ;
#106 = AXIS2_PLACEMENT_3D ( 'NONE', #9, #11, #68 ) ;
#107 = EDGE_CURVE ( 'NONE', #59, #3, #129, .T. ) ;
#108 =( GEOMETRIC_REPRESENTATION_CONTEXT ( 3 ) GLOBAL_UNCERTAINTY_ASSIGNED_CONTEXT ( ( #182 ) ) GLOBAL_UNIT_ASSIGNED_CONTEXT ( ( #119, #139, #155 ) ) REPRESENTATION_CONTEXT ( 'NONE', 'WORKASPACE' ) );
#109 = DIRECTION ( 'NONE',  ( 0.7071067811865463515, -2.897562362236303877E-16, 0.7071067811865487940 ) ) ;
#110 = CARTESIAN_POINT ( 'NONE',  ( -2.731847993664263218E-16, 0.7207864376269038642, -1.414213562373092481 ) ) ;
#111 = SECURITY_CLASSIFICATION ( '', '', #90 ) ;
#112 = FACE_OUTER_BOUND ( 'NONE', #42, .T. ) ;
#113 = DATE_TIME_ROLE ( 'classification_date' ) ;
#114 = AXIS2_PLACEMENT_3D ( 'NONE', #170, #156, #93 ) ;
#115 = APPROVAL_PERSON_ORGANIZATION ( #135, #194, #150 ) ;
#116 = PERSON_AND_ORGANIZATION ( #72, #212 ) ;
#117 = CARTESIAN_POINT ( 'NONE',  ( 0.000000000000000000, -1.414213562373096256, -1.414213562373093369 ) ) ;
#118 = VECTOR ( 'NONE', #175, 39.37007874015748854 ) ;
#119 =( CONVERSION_BASED_UNIT ( 'INCH', #140 ) LENGTH_UNIT ( ) NAMED_UNIT ( #18 ) );
#120 = APPLICATION_PROTOCOL_DEFINITION ( 'international standard', 'config_control_design', 1994, #33 ) ;
#121 = VERTEX_POINT ( 'NONE', #144 ) ;
#122 = APPROVAL_ROLE ( '' ) ;
#123 = PERSON_AND_ORGANIZATION ( #72, #212 ) ;
#124 = EDGE_LOOP ( 'NONE', ( #143, #160, #6, #45 ) ) ;
#125 = ADVANCED_FACE ( 'NONE', ( #88 ), #131, .T. ) ;
#126 = CALENDAR_DATE ( 2024, 21, 1 ) ;
#127 = ORIENTED_EDGE ( 'NONE', *, *, #46, .T. ) ;
#128 = CALENDAR_DATE ( 2024, 21, 1 ) ;
#129 = CIRCLE ( 'NONE', #5, 2.135000000000000231 ) ;
#130 = LOCAL_TIME ( 10, 17, 54.00000000000000000, #177 ) ;
#131 = PLANE ( 'NONE',  #61 ) ;
#132 = PERSON_AND_ORGANIZATION_ROLE ( 'creator' ) ;
#133 = CARTESIAN_POINT ( 'NONE',  ( 1.414213562373097810, -1.414213562373091815, -5.463695987328526437E-16 ) ) ;
#134 = CARTESIAN_POINT ( 'NONE',  ( -1.414213562373097810, -1.414213562373091815, -5.463695987328526437E-16 ) ) ;
#135 = PERSON_AND_ORGANIZATION ( #72, #212 ) ;
#136 = AXIS2_PLACEMENT_3D ( 'NONE', #138, #91, #164 ) ;
#137 = CALENDAR_DATE ( 2024, 21, 1 ) ;
#138 = CARTESIAN_POINT ( 'NONE',  ( 0.000000000000000000, -1.414213562373096256, -1.414213562373093369 ) ) ;
#139 =( NAMED_UNIT ( * ) PLANE_ANGLE_UNIT ( ) SI_UNIT ( $, .RADIAN. ) );
#140 = LENGTH_MEASURE_WITH_UNIT ( LENGTH_MEASURE( 0.02539999999999999897 ), #213 );
#141 = EDGE_CURVE ( 'NONE', #121, #94, #180, .T. ) ;
#142 = ADVANCED_FACE ( 'NONE', ( #112 ), #86, .F. ) ;
#143 = ORIENTED_EDGE ( 'NONE', *, *, #197, .F. ) ;
#144 = CARTESIAN_POINT ( 'NONE',  ( -1.414213562373097810, -1.414213562373091815, -5.463695987328526437E-16 ) ) ;
#145 = COORDINATED_UNIVERSAL_TIME_OFFSET ( 8, 0, .BEHIND. ) ;
#146 = LINE ( 'NONE', #134, #67 ) ;
#147 = DIRECTION ( 'NONE',  ( -0.000000000000000000, 1.000000000000000000, 4.097771990496395814E-16 ) ) ;
#148 = CC_DESIGN_PERSON_AND_ORGANIZATION_ASSIGNMENT ( #28, #201, ( #77 ) ) ;
#149 = APPROVAL_DATE_TIME ( #31, #194 ) ;
#150 = APPROVAL_ROLE ( '' ) ;
#151 = DIRECTION ( 'NONE',  ( -0.000000000000000000, 1.000000000000000000, 4.097771990496395814E-16 ) ) ;
#152 = DIRECTION ( 'NONE',  ( 0.000000000000000000, -1.000000000000000000, -4.097771990496395814E-16 ) ) ;
#153 = CIRCLE ( 'NONE', #136, 2.000000000000000000 ) ;
#154 = EDGE_CURVE ( 'NONE', #3, #94, #73, .T. ) ;
#155 =( NAMED_UNIT ( * ) SI_UNIT ( $, .STERADIAN. ) SOLID_ANGLE_UNIT ( ) );
#156 = DIRECTION ( 'NONE',  ( 0.000000000000000000, 0.000000000000000000, 1.000000000000000000 ) ) ;
#157 = EDGE_LOOP ( 'NONE', ( #22, #80, #20, #24 ) ) ;
#158 = EDGE_CURVE ( 'NONE', #200, #121, #146, .T. ) ;
#159 = AXIS2_PLACEMENT_3D ( 'NONE', #169, #147, #97 ) ;
#160 = ORIENTED_EDGE ( 'NONE', *, *, #158, .F. ) ;
#161 = CALENDAR_DATE ( 2024, 21, 1 ) ;
#162 = CARTESIAN_POINT ( 'NONE',  ( 0.000000000000000000, 0.5857864376269035223, -1.414213562373092703 ) ) ;
#163 = PERSON_AND_ORGANIZATION_ROLE ( 'design_owner' ) ;
#164 = DIRECTION ( 'NONE',  ( 0.7071067811865487940, 1.365923996832131609E-16, 0.7071067811865463515 ) ) ;
#165 = PRODUCT_RELATED_PRODUCT_CATEGORY ( 'detail', '', ( #87 ) ) ;
#166 = AXIS2_PLACEMENT_3D ( 'NONE', #99, #178, #168 ) ;
#167 = SPHERICAL_SURFACE ( 'NONE', #106, 2.135000000000000231 ) ;
#168 = DIRECTION ( 'NONE',  ( -0.7071067811865487940, 1.365923996832131609E-16, 0.7071067811865463515 ) ) ;
#169 = CARTESIAN_POINT ( 'NONE',  ( 0.000000000000000000, -1.414213562373091371, -1.414213562373093369 ) ) ;
#170 = CARTESIAN_POINT ( 'NONE',  ( 0.000000000000000000, 0.000000000000000000, 0.000000000000000000 ) ) ;
#171 = CLOSED_SHELL ( 'NONE', ( #210, #125, #75, #4, #142 ) ) ;
#172 = ORIENTED_EDGE ( 'NONE', *, *, #141, .F. ) ;
#173 = DIRECTION ( 'NONE',  ( -1.141138757473308761E-15, 1.000000000000000000, 1.550915956522944200E-15 ) ) ;
#174 = APPROVAL_STATUS ( 'not_yet_approved' ) ;
#175 = DIRECTION ( 'NONE',  ( -0.7071067811865486830, -4.167203175661944792E-15, -0.7071067811865462405 ) ) ;
#176 = FACE_OUTER_BOUND ( 'NONE', #185, .T. ) ;
#177 = COORDINATED_UNIVERSAL_TIME_OFFSET ( 8, 0, .BEHIND. ) ;
#178 = DIRECTION ( 'NONE',  ( -0.7071067811865463515, 2.897562362236303877E-16, -0.7071067811865487940 ) ) ;
#179 = EDGE_CURVE ( 'NONE', #200, #3, #195, .T. ) ;
#180 = CIRCLE ( 'NONE', #159, 2.000000000000000444 ) ;
#181 = DIRECTION ( 'NONE',  ( 0.7071067811865462405, -2.897562362236303877E-16, 0.7071067811865487940 ) ) ;
#182 = UNCERTAINTY_MEASURE_WITH_UNIT (LENGTH_MEASURE( 1.000000000000000082E-05 ), #119, 'distance_accuracy_value', 'NONE');
#183 = CIRCLE ( 'NONE', #95, 2.135000000000000231 ) ;
#184 = CC_DESIGN_APPROVAL ( #54, ( #89 ) ) ;
#185 = EDGE_LOOP ( 'NONE', ( #82, #44, #40 ) ) ;
#186 = DATE_AND_TIME ( #128, #14 ) ;
#187 = CARTESIAN_POINT ( 'NONE',  ( 0.000000000000000000, -1.414213562373096256, -1.414213562373093369 ) ) ;
#188 = COORDINATED_UNIVERSAL_TIME_OFFSET ( 8, 0, .BEHIND. ) ;
#189 = DIRECTION ( 'NONE',  ( -0.7071067811865487940, 1.279554095393097433E-16, 0.7071067811865462405 ) ) ;
#190 = DIRECTION ( 'NONE',  ( 0.7071067811865486830, -4.167203175661944792E-15, -0.7071067811865462405 ) ) ;
#191 = AXIS2_PLACEMENT_3D ( 'NONE', #117, #181, #17 ) ;
#192 = APPROVAL_STATUS ( 'not_yet_approved' ) ;
#193 = DATE_AND_TIME ( #137, #92 ) ;
#194 = APPROVAL ( #192, 'UNSPECIFIED' ) ;
#195 = CIRCLE ( 'NONE', #10, 2.135000000000000675 ) ;
#196 = DIRECTION ( 'NONE',  ( 0.7071067811865463515, 2.897562362236303384E-16, -0.7071067811865487940 ) ) ;
#197 = EDGE_CURVE ( 'NONE', #121, #21, #205, .T. ) ;
#198 = ORIENTED_EDGE ( 'NONE', *, *, #107, .T. ) ;
#199 = DATE_AND_TIME ( #126, #79 ) ;
#200 = VERTEX_POINT ( 'NONE', #211 ) ;
#201 = PERSON_AND_ORGANIZATION_ROLE ( 'creator' ) ;
#202 = EDGE_LOOP ( 'NONE', ( #172, #64, #66 ) ) ;
#203 = APPROVAL_STATUS ( 'not_yet_approved' ) ;
#204 = FACE_OUTER_BOUND ( 'NONE', #124, .T. ) ;
#205 = CIRCLE ( 'NONE', #166, 2.000000000000000000 ) ;
#206 = CARTESIAN_POINT ( 'NONE',  ( 1.509672977833282026, -1.414213562373091371, 0.09545941546018343882 ) ) ;
#207 = SHAPE_DEFINITION_REPRESENTATION ( #7, #36 ) ;
#208 = DIRECTION ( 'NONE',  ( -0.7071067811865463515, -2.897562362236303877E-16, 0.7071067811865487940 ) ) ;
#209 = AXIS2_PLACEMENT_3D ( 'NONE', #187, #208, #49 ) ;
#210 = ADVANCED_FACE ( 'NONE', ( #32 ), #57, .F. ) ;
#211 = CARTESIAN_POINT ( 'NONE',  ( -1.509672977833282248, -1.414213562373091371, 0.09545941546018336943 ) ) ;
#212 = ORGANIZATION ( 'UNSPECIFIED', 'UNSPECIFIED', '' ) ;
#213 =( LENGTH_UNIT ( ) NAMED_UNIT ( * ) SI_UNIT ( $, .METRE. ) );
ENDSEC;
END-ISO-10303-21;
