ISO-10303-21;
HEADER;
FILE_DESCRIPTION (( 'STEP AP203' ),
    '1' );
FILE_NAME ('400504.STEP',
    '2024-01-21T18:07:40',
    ( '' ),
    ( '' ),
    'SwSTEP 2.0',
    'SolidWorks 2021',
    '' );
FILE_SCHEMA (( 'CONFIG_CONTROL_DESIGN' ));
ENDSEC;

DATA;
#1 = FACE_OUTER_BOUND ( 'NONE', #148, .T. ) ;
#2 = ORIENTED_EDGE ( 'NONE', *, *, #17, .T. ) ;
#3 = CARTESIAN_POINT ( 'NONE',  ( 0.000000000000000000, -1.414213562373091371, -1.414213562373093369 ) ) ;
#4 = MANIFOLD_SOLID_BREP ( 'Revolve1', #165 ) ;
#5 = UNCERTAINTY_MEASURE_WITH_UNIT (LENGTH_MEASURE( 1.000000000000000082E-05 ), #9, 'distance_accuracy_value', 'NONE');
#6 = ADVANCED_FACE ( 'NONE', ( #162 ), #132, .T. ) ;
#7 = ORIENTED_EDGE ( 'NONE', *, *, #54, .F. ) ;
#8 =( NAMED_UNIT ( * ) SI_UNIT ( $, .STERADIAN. ) SOLID_ANGLE_UNIT ( ) );
#9 =( CONVERSION_BASED_UNIT ( 'INCH', #188 ) LENGTH_UNIT ( ) NAMED_UNIT ( #114 ) );
#10 = PERSON_AND_ORGANIZATION_ROLE ( 'design_owner' ) ;
#11 = DIRECTION ( 'NONE',  ( -0.7071067811865487940, 1.365923996832131609E-16, 0.7071067811865463515 ) ) ;
#12 = DIRECTION ( 'NONE',  ( -0.7071067811865486830, -4.673100952266434431E-15, -0.7071067811865462405 ) ) ;
#13 = CIRCLE ( 'NONE', #134, 2.000000000000000444 ) ;
#14 = DATE_TIME_ROLE ( 'creation_date' ) ;
#15 = ORIENTED_EDGE ( 'NONE', *, *, #139, .T. ) ;
#16 = CALENDAR_DATE ( 2024, 21, 1 ) ;
#17 = EDGE_CURVE ( 'NONE', #47, #96, #173, .T. ) ;
#18 = DIRECTION ( 'NONE',  ( -0.7071067811865486830, 1.200209628260102537E-16, 0.7071067811865462405 ) ) ;
#19 = CC_DESIGN_PERSON_AND_ORGANIZATION_ASSIGNMENT ( #29, #91, ( #64 ) ) ;
#20 = FACE_OUTER_BOUND ( 'NONE', #72, .T. ) ;
#21 = ORIENTED_EDGE ( 'NONE', *, *, #103, .T. ) ;
#22 = LOCAL_TIME ( 10, 7, 40.00000000000000000, #46 ) ;
#23 = ORIENTED_EDGE ( 'NONE', *, *, #28, .T. ) ;
#24 =( NAMED_UNIT ( * ) PLANE_ANGLE_UNIT ( ) SI_UNIT ( $, .RADIAN. ) );
#25 = LOCAL_TIME ( 10, 7, 40.00000000000000000, #78 ) ;
#26 = DIRECTION ( 'NONE',  ( -0.7071067811865486830, 1.326139802749642207E-16, 0.7071067811865462405 ) ) ;
#27 = CARTESIAN_POINT ( 'NONE',  ( 0.000000000000000000, 0.000000000000000000, 0.000000000000000000 ) ) ;
#28 = EDGE_CURVE ( 'NONE', #30, #61, #13, .T. ) ;
#29 = PERSON_AND_ORGANIZATION ( #57, #169 ) ;
#30 = VERTEX_POINT ( 'NONE', #38 ) ;
#31 = PERSON_AND_ORGANIZATION ( #57, #169 ) ;
#32 = PRODUCT_DEFINITION ( 'UNKNOWN', '', #64, #129 ) ;
#33 = APPROVAL_DATE_TIME ( #141, #112 ) ;
#34 = AXIS2_PLACEMENT_3D ( 'NONE', #41, #119, #105 ) ;
#35 = CIRCLE ( 'NONE', #45, 2.060000000000000053 ) ;
#36 = PLANE ( 'NONE',  #204 ) ;
#37 = APPROVAL_PERSON_ORGANIZATION ( #31, #137, #77 ) ;
#38 = CARTESIAN_POINT ( 'NONE',  ( -1.414213562373097810, -1.414213562373091815, -5.463695987328526437E-16 ) ) ;
#39 = DIRECTION ( 'NONE',  ( 0.7071067811865462405, -2.897562362236303877E-16, 0.7071067811865487940 ) ) ;
#40 = CARTESIAN_POINT ( 'NONE',  ( 0.000000000000000000, -1.414213562373096256, -1.414213562373093369 ) ) ;
#41 = CARTESIAN_POINT ( 'NONE',  ( 0.000000000000000000, -1.414213562373096256, -1.414213562373093369 ) ) ;
#42 = APPROVAL_STATUS ( 'not_yet_approved' ) ;
#43 = CARTESIAN_POINT ( 'NONE',  ( 0.000000000000000000, -1.414213562373096256, -1.414213562373093369 ) ) ;
#44 = CC_DESIGN_PERSON_AND_ORGANIZATION_ASSIGNMENT ( #142, #192, ( #118 ) ) ;
#45 = AXIS2_PLACEMENT_3D ( 'NONE', #133, #187, #155 ) ;
#46 = COORDINATED_UNIVERSAL_TIME_OFFSET ( 8, 0, .BEHIND. ) ;
#47 = VERTEX_POINT ( 'NONE', #199 ) ;
#48 = ADVANCED_FACE ( 'NONE', ( #20 ), #113, .F. ) ;
#49 = DIRECTION ( 'NONE',  ( 0.000000000000000000, -3.978419408248925883E-16, 1.000000000000000000 ) ) ;
#50 = ORIENTED_EDGE ( 'NONE', *, *, #126, .T. ) ;
#51 = AXIS2_PLACEMENT_3D ( 'NONE', #27, #172, #135 ) ;
#52 = CARTESIAN_POINT ( 'NONE',  ( 0.000000000000000000, -1.414213562373096256, -1.414213562373093369 ) ) ;
#53 = LINE ( 'NONE', #116, #67 ) ;
#54 = EDGE_CURVE ( 'NONE', #83, #156, #94, .T. ) ;
#55 = LOCAL_TIME ( 10, 7, 40.00000000000000000, #121 ) ;
#56 =( LENGTH_UNIT ( ) NAMED_UNIT ( * ) SI_UNIT ( $, .METRE. ) );
#57 = PERSON ( 'UNSPECIFIED', 'UNSPECIFIED', 'UNSPECIFIED', ('UNSPECIFIED'), ('UNSPECIFIED'), ('UNSPECIFIED') ) ;
#58 = APPROVAL_DATE_TIME ( #73, #137 ) ;
#59 = PERSON_AND_ORGANIZATION_ROLE ( 'creator' ) ;
#60 = ADVANCED_FACE ( 'NONE', ( #110 ), #36, .T. ) ;
#61 = VERTEX_POINT ( 'NONE', #79 ) ;
#62 = ADVANCED_FACE ( 'NONE', ( #1 ), #136, .F. ) ;
#63 = DIRECTION ( 'NONE',  ( -0.7071067811865463515, -2.897562362236303877E-16, 0.7071067811865487940 ) ) ;
#64 = PRODUCT_DEFINITION_FORMATION_WITH_SPECIFIED_SOURCE ( 'ANY', '', #149, .NOT_KNOWN. ) ;
#65 = ORIENTED_EDGE ( 'NONE', *, *, #168, .T. ) ;
#66 = DIRECTION ( 'NONE',  ( 0.7071067811865463515, -2.897562362236303877E-16, 0.7071067811865487940 ) ) ;
#67 = VECTOR ( 'NONE', #12, 39.37007874015748854 ) ;
#68 = CARTESIAN_POINT ( 'NONE',  ( -2.731847993664263218E-16, 0.6457864376269036866, -1.414213562373092481 ) ) ;
#69 = APPLICATION_PROTOCOL_DEFINITION ( 'international standard', 'config_control_design', 1994, #202 ) ;
#70 = AXIS2_PLACEMENT_3D ( 'NONE', #151, #80, #179 ) ;
#71 = COORDINATED_UNIVERSAL_TIME_OFFSET ( 8, 0, .BEHIND. ) ;
#72 = EDGE_LOOP ( 'NONE', ( #50, #82, #21, #127 ) ) ;
#73 = DATE_AND_TIME ( #89, #100 ) ;
#74 = APPROVAL_STATUS ( 'not_yet_approved' ) ;
#75 = APPROVAL_PERSON_ORGANIZATION ( #207, #164, #92 ) ;
#76 = PRODUCT_DEFINITION_SHAPE ( 'NONE', 'NONE',  #32 ) ;
#77 = APPROVAL_ROLE ( '' ) ;
#78 = COORDINATED_UNIVERSAL_TIME_OFFSET ( 8, 0, .BEHIND. ) ;
#79 = CARTESIAN_POINT ( 'NONE',  ( 1.414213562373097810, -1.414213562373091815, -5.463695987328526437E-16 ) ) ;
#80 = DIRECTION ( 'NONE',  ( 0.000000000000000000, -1.000000000000000000, -4.097771990496395814E-16 ) ) ;
#81 = ORIENTED_EDGE ( 'NONE', *, *, #126, .F. ) ;
#82 = ORIENTED_EDGE ( 'NONE', *, *, #54, .T. ) ;
#83 = VERTEX_POINT ( 'NONE', #115 ) ;
#84 = CC_DESIGN_DATE_AND_TIME_ASSIGNMENT ( #190, #160, ( #118 ) ) ;
#85 = DIRECTION ( 'NONE',  ( -0.7071067811865486830, -2.731847993664262725E-16, 0.7071067811865462405 ) ) ;
#86 = AXIS2_PLACEMENT_3D ( 'NONE', #40, #66, #26 ) ;
#87 = PERSON_AND_ORGANIZATION ( #57, #169 ) ;
#88 = FACE_OUTER_BOUND ( 'NONE', #128, .T. ) ;
#89 = CALENDAR_DATE ( 2024, 21, 1 ) ;
#90 = CC_DESIGN_PERSON_AND_ORGANIZATION_ASSIGNMENT ( #212, #59, ( #32 ) ) ;
#91 = PERSON_AND_ORGANIZATION_ROLE ( 'design_supplier' ) ;
#92 = APPROVAL_ROLE ( '' ) ;
#93 = SECURITY_CLASSIFICATION_LEVEL ( 'unclassified' ) ;
#94 = LINE ( 'NONE', #200, #159 ) ;
#95 = ORIENTED_EDGE ( 'NONE', *, *, #171, .T. ) ;
#96 = VERTEX_POINT ( 'NONE', #186 ) ;
#97 = DIRECTION ( 'NONE',  ( -2.929757499594489364E-15, 1.000000000000000000, 3.339534698644118493E-15 ) ) ;
#98 = ORIENTED_EDGE ( 'NONE', *, *, #168, .F. ) ;
#99 = AXIS2_PLACEMENT_3D ( 'NONE', #52, #63, #195 ) ;
#100 = LOCAL_TIME ( 10, 7, 40.00000000000000000, #71 ) ;
#101 = MECHANICAL_CONTEXT ( 'NONE', #177, 'mechanical' ) ;
#102 = DIRECTION ( 'NONE',  ( 0.7071067811865463515, -2.897562362236303384E-16, 0.7071067811865486830 ) ) ;
#103 = EDGE_CURVE ( 'NONE', #156, #96, #35, .T. ) ;
#104 = DIRECTION ( 'NONE',  ( 0.7071067811865486830, -4.673100952266434431E-15, -0.7071067811865462405 ) ) ;
#105 = DIRECTION ( 'NONE',  ( 0.7071067811865487940, 1.365923996832131609E-16, 0.7071067811865463515 ) ) ;
#106 = CC_DESIGN_APPROVAL ( #164, ( #32 ) ) ;
#107 = COORDINATED_UNIVERSAL_TIME_OFFSET ( 8, 0, .BEHIND. ) ;
#108 = PERSON_AND_ORGANIZATION ( #57, #169 ) ;
#109 = PERSON_AND_ORGANIZATION_ROLE ( 'creator' ) ;
#110 = FACE_OUTER_BOUND ( 'NONE', #163, .T. ) ;
#111 = DIRECTION ( 'NONE',  ( -0.7071067811865463515, 2.897562362236303877E-16, -0.7071067811865487940 ) ) ;
#112 = APPROVAL ( #176, 'UNSPECIFIED' ) ;
#113 = PLANE ( 'NONE',  #99 ) ;
#114 = DIMENSIONAL_EXPONENTS ( 1.000000000000000000, 0.000000000000000000, 0.000000000000000000, 0.000000000000000000, 0.000000000000000000, 0.000000000000000000, 0.000000000000000000 ) ;
#115 = CARTESIAN_POINT ( 'NONE',  ( 0.000000000000000000, 0.5857864376269035223, -1.414213562373092703 ) ) ;
#116 = CARTESIAN_POINT ( 'NONE',  ( 1.414213562373097810, -1.414213562373091815, -5.463695987328526437E-16 ) ) ;
#117 = CIRCLE ( 'NONE', #34, 2.000000000000000000 ) ;
#118 = SECURITY_CLASSIFICATION ( '', '', #93 ) ;
#119 = DIRECTION ( 'NONE',  ( -0.7071067811865463515, -2.897562362236303384E-16, 0.7071067811865487940 ) ) ;
#120 = CC_DESIGN_PERSON_AND_ORGANIZATION_ASSIGNMENT ( #143, #109, ( #64 ) ) ;
#121 = COORDINATED_UNIVERSAL_TIME_OFFSET ( 8, 0, .BEHIND. ) ;
#122 = CIRCLE ( 'NONE', #194, 2.000000000000000000 ) ;
#123 = CC_DESIGN_PERSON_AND_ORGANIZATION_ASSIGNMENT ( #87, #10, ( #149 ) ) ;
#124 = CALENDAR_DATE ( 2024, 21, 1 ) ;
#125 = ORIENTED_EDGE ( 'NONE', *, *, #103, .F. ) ;
#126 = EDGE_CURVE ( 'NONE', #61, #83, #117, .T. ) ;
#127 = ORIENTED_EDGE ( 'NONE', *, *, #130, .T. ) ;
#128 = EDGE_LOOP ( 'NONE', ( #125, #95, #2 ) ) ;
#129 = DESIGN_CONTEXT ( 'detailed design', #202, 'design' ) ;
#130 = EDGE_CURVE ( 'NONE', #96, #61, #53, .T. ) ;
#131 = ORIENTED_EDGE ( 'NONE', *, *, #171, .F. ) ;
#132 = PLANE ( 'NONE',  #70 ) ;
#133 = CARTESIAN_POINT ( 'NONE',  ( 0.000000000000000000, -1.414213562373096256, -1.414213562373093369 ) ) ;
#134 = AXIS2_PLACEMENT_3D ( 'NONE', #166, #196, #147 ) ;
#135 = DIRECTION ( 'NONE',  ( 1.000000000000000000, 0.000000000000000000, 0.000000000000000000 ) ) ;
#136 = SPHERICAL_SURFACE ( 'NONE', #189, 2.000000000000000000 ) ;
#137 = APPROVAL ( #74, 'UNSPECIFIED' ) ;
#138 = LINE ( 'NONE', #208, #183 ) ;
#139 = EDGE_CURVE ( 'NONE', #47, #30, #138, .T. ) ;
#140 = CALENDAR_DATE ( 2024, 21, 1 ) ;
#141 = DATE_AND_TIME ( #140, #55 ) ;
#142 = PERSON_AND_ORGANIZATION ( #57, #169 ) ;
#143 = PERSON_AND_ORGANIZATION ( #57, #169 ) ;
#144 = ADVANCED_BREP_SHAPE_REPRESENTATION ( '400504', ( #4, #51 ), #150 ) ;
#145 = CC_DESIGN_APPROVAL ( #112, ( #118 ) ) ;
#146 = ORIENTED_EDGE ( 'NONE', *, *, #139, .F. ) ;
#147 = DIRECTION ( 'NONE',  ( 0.000000000000000000, -4.097771990496393842E-16, 1.000000000000000000 ) ) ;
#148 = EDGE_LOOP ( 'NONE', ( #153, #65, #81 ) ) ;
#149 = PRODUCT ( '400504', '400504', '', ( #101 ) ) ;
#150 =( GEOMETRIC_REPRESENTATION_CONTEXT ( 3 ) GLOBAL_UNCERTAINTY_ASSIGNED_CONTEXT ( ( #5 ) ) GLOBAL_UNIT_ASSIGNED_CONTEXT ( ( #9, #24, #8 ) ) REPRESENTATION_CONTEXT ( 'NONE', 'WORKASPACE' ) );
#151 = CARTESIAN_POINT ( 'NONE',  ( -1.414213562373097810, -1.414213562373091815, -5.463695987328526437E-16 ) ) ;
#152 = CC_DESIGN_APPROVAL ( #137, ( #64 ) ) ;
#153 = ORIENTED_EDGE ( 'NONE', *, *, #28, .F. ) ;
#154 = SPHERICAL_SURFACE ( 'NONE', #211, 2.060000000000000053 ) ;
#155 = DIRECTION ( 'NONE',  ( 0.7071067811865486830, 1.326139802749642207E-16, 0.7071067811865462405 ) ) ;
#156 = VERTEX_POINT ( 'NONE', #68 ) ;
#157 = APPROVAL_ROLE ( '' ) ;
#158 = DATE_AND_TIME ( #16, #197 ) ;
#159 = VECTOR ( 'NONE', #97, 39.37007874015748143 ) ;
#160 = DATE_TIME_ROLE ( 'classification_date' ) ;
#161 = CARTESIAN_POINT ( 'NONE',  ( 0.000000000000000000, -1.414213562373096256, -1.414213562373093369 ) ) ;
#162 = FACE_OUTER_BOUND ( 'NONE', #198, .T. ) ;
#163 = EDGE_LOOP ( 'NONE', ( #98, #146, #131, #7 ) ) ;
#164 = APPROVAL ( #42, 'UNSPECIFIED' ) ;
#165 = CLOSED_SHELL ( 'NONE', ( #62, #6, #193, #60, #48 ) ) ;
#166 = CARTESIAN_POINT ( 'NONE',  ( 0.000000000000000000, -1.414213562373091371, -1.414213562373093369 ) ) ;
#167 = DIRECTION ( 'NONE',  ( -0.7071067811865463515, 2.897562362236303877E-16, -0.7071067811865487940 ) ) ;
#168 = EDGE_CURVE ( 'NONE', #30, #83, #122, .T. ) ;
#169 = ORGANIZATION ( 'UNSPECIFIED', 'UNSPECIFIED', '' ) ;
#170 = CARTESIAN_POINT ( 'NONE',  ( 0.000000000000000000, -1.414213562373096256, -1.414213562373093369 ) ) ;
#171 = EDGE_CURVE ( 'NONE', #156, #47, #191, .T. ) ;
#172 = DIRECTION ( 'NONE',  ( 0.000000000000000000, 0.000000000000000000, 1.000000000000000000 ) ) ;
#173 = CIRCLE ( 'NONE', #180, 2.060000000000000497 ) ;
#174 = APPROVAL_PERSON_ORGANIZATION ( #108, #112, #157 ) ;
#175 = APPROVAL_DATE_TIME ( #158, #164 ) ;
#176 = APPROVAL_STATUS ( 'not_yet_approved' ) ;
#177 = APPLICATION_CONTEXT ( 'configuration controlled 3d designs of mechanical parts and assemblies' ) ;
#178 = DIRECTION ( 'NONE',  ( -0.000000000000000000, 1.000000000000000000, 4.097771990496395814E-16 ) ) ;
#179 = DIRECTION ( 'NONE',  ( 0.000000000000000000, 4.097771990496395814E-16, -1.000000000000000000 ) ) ;
#180 = AXIS2_PLACEMENT_3D ( 'NONE', #3, #178, #49 ) ;
#181 = ORIENTED_EDGE ( 'NONE', *, *, #17, .F. ) ;
#182 = ORIENTED_EDGE ( 'NONE', *, *, #130, .F. ) ;
#183 = VECTOR ( 'NONE', #104, 39.37007874015748854 ) ;
#184 = CC_DESIGN_SECURITY_CLASSIFICATION ( #118, ( #64 ) ) ;
#185 = APPLICATION_PROTOCOL_DEFINITION ( 'international standard', 'config_control_design', 1994, #177 ) ;
#186 = CARTESIAN_POINT ( 'NONE',  ( 1.456639969244290844, -1.414213562373091815, 0.04242640687119232645 ) ) ;
#187 = DIRECTION ( 'NONE',  ( 0.7071067811865463515, 2.897562362236303384E-16, -0.7071067811865487940 ) ) ;
#188 = LENGTH_MEASURE_WITH_UNIT ( LENGTH_MEASURE( 0.02539999999999999897 ), #56 );
#189 = AXIS2_PLACEMENT_3D ( 'NONE', #43, #39, #85 ) ;
#190 = DATE_AND_TIME ( #213, #22 ) ;
#191 = CIRCLE ( 'NONE', #86, 2.060000000000000053 ) ;
#192 = PERSON_AND_ORGANIZATION_ROLE ( 'classification_officer' ) ;
#193 = ADVANCED_FACE ( 'NONE', ( #88 ), #154, .T. ) ;
#194 = AXIS2_PLACEMENT_3D ( 'NONE', #170, #167, #11 ) ;
#195 = DIRECTION ( 'NONE',  ( 0.7071067811865486830, 1.200209628260102044E-16, 0.7071067811865462405 ) ) ;
#196 = DIRECTION ( 'NONE',  ( -0.000000000000000000, 1.000000000000000000, 4.097771990496395814E-16 ) ) ;
#197 = LOCAL_TIME ( 10, 7, 40.00000000000000000, #107 ) ;
#198 = EDGE_LOOP ( 'NONE', ( #181, #15, #23, #182 ) ) ;
#199 = CARTESIAN_POINT ( 'NONE',  ( -1.456639969244290844, -1.414213562373091815, 0.04242640687119218768 ) ) ;
#200 = CARTESIAN_POINT ( 'NONE',  ( 0.000000000000000000, 0.5857864376269035223, -1.414213562373092703 ) ) ;
#201 = PRODUCT_RELATED_PRODUCT_CATEGORY ( 'detail', '', ( #149 ) ) ;
#202 = APPLICATION_CONTEXT ( 'configuration controlled 3d designs of mechanical parts and assemblies' ) ;
#203 = CC_DESIGN_DATE_AND_TIME_ASSIGNMENT ( #209, #14, ( #32 ) ) ;
#204 = AXIS2_PLACEMENT_3D ( 'NONE', #161, #111, #18 ) ;
#205 = DIRECTION ( 'NONE',  ( -0.7071067811865486830, -2.652279605499284908E-16, 0.7071067811865463515 ) ) ;
#206 = CARTESIAN_POINT ( 'NONE',  ( 0.000000000000000000, -1.414213562373096256, -1.414213562373093369 ) ) ;
#207 = PERSON_AND_ORGANIZATION ( #57, #169 ) ;
#208 = CARTESIAN_POINT ( 'NONE',  ( -1.414213562373097810, -1.414213562373091815, -5.463695987328526437E-16 ) ) ;
#209 = DATE_AND_TIME ( #124, #25 ) ;
#210 = SHAPE_DEFINITION_REPRESENTATION ( #76, #144 ) ;
#211 = AXIS2_PLACEMENT_3D ( 'NONE', #206, #102, #205 ) ;
#212 = PERSON_AND_ORGANIZATION ( #57, #169 ) ;
#213 = CALENDAR_DATE ( 2024, 21, 1 ) ;
ENDSEC;
END-ISO-10303-21;
