ISO-10303-21;
HEADER;
FILE_DESCRIPTION (( 'STEP AP203' ),
    '1' );
FILE_NAME ('400509.STEP',
    '2024-01-21T18:16:31',
    ( '' ),
    ( '' ),
    'SwSTEP 2.0',
    'SolidWorks 2021',
    '' );
FILE_SCHEMA (( 'CONFIG_CONTROL_DESIGN' ));
ENDSEC;

DATA;
#1 = ORIENTED_EDGE ( 'NONE', *, *, #75, .T. ) ;
#2 = AXIS2_PLACEMENT_3D ( 'NONE', #80, #184, #146 ) ;
#3 = CARTESIAN_POINT ( 'NONE',  ( 0.000000000000000000, -1.414213562373096256, -1.414213562373093369 ) ) ;
#4 = DIRECTION ( 'NONE',  ( -0.7071067811865487940, 1.279554095393097433E-16, 0.7071067811865462405 ) ) ;
#5 = AXIS2_PLACEMENT_3D ( 'NONE', #205, #101, #4 ) ;
#6 = DIRECTION ( 'NONE',  ( -0.000000000000000000, 1.000000000000000000, 4.097771990496395814E-16 ) ) ;
#7 = DIRECTION ( 'NONE',  ( -0.7071067811865486830, 1.200209628260102537E-16, 0.7071067811865462405 ) ) ;
#8 = DATE_TIME_ROLE ( 'classification_date' ) ;
#9 = CALENDAR_DATE ( 2024, 21, 1 ) ;
#10 = LOCAL_TIME ( 10, 16, 31.00000000000000000, #196 ) ;
#11 = CALENDAR_DATE ( 2024, 21, 1 ) ;
#12 = EDGE_LOOP ( 'NONE', ( #1, #66, #200, #16 ) ) ;
#13 = PERSON_AND_ORGANIZATION ( #79, #110 ) ;
#14 = AXIS2_PLACEMENT_3D ( 'NONE', #117, #69, #68 ) ;
#15 = APPROVAL ( #108, 'UNSPECIFIED' ) ;
#16 = ORIENTED_EDGE ( 'NONE', *, *, #213, .T. ) ;
#17 = DATE_AND_TIME ( #9, #10 ) ;
#18 = DIRECTION ( 'NONE',  ( -0.7071067811865487940, 1.365923996832131609E-16, 0.7071067811865463515 ) ) ;
#19 = PLANE ( 'NONE',  #14 ) ;
#20 = CARTESIAN_POINT ( 'NONE',  ( 0.000000000000000000, -1.414213562373096256, -1.414213562373093369 ) ) ;
#21 = CC_DESIGN_PERSON_AND_ORGANIZATION_ASSIGNMENT ( #96, #61, ( #191 ) ) ;
#22 = DIRECTION ( 'NONE',  ( -0.7071067811865486830, -4.167203175661944792E-15, -0.7071067811865462405 ) ) ;
#23 = VECTOR ( 'NONE', #192, 39.37007874015748143 ) ;
#24 = DIRECTION ( 'NONE',  ( -0.7071067811865463515, 2.897562362236303877E-16, -0.7071067811865487940 ) ) ;
#25 = EDGE_CURVE ( 'NONE', #133, #164, #103, .T. ) ;
#26 = DESIGN_CONTEXT ( 'detailed design', #198, 'design' ) ;
#27 = PERSON_AND_ORGANIZATION ( #79, #110 ) ;
#28 = ORIENTED_EDGE ( 'NONE', *, *, #160, .F. ) ;
#29 = DATE_AND_TIME ( #208, #168 ) ;
#30 = APPROVAL_ROLE ( '' ) ;
#31 = LOCAL_TIME ( 10, 16, 31.00000000000000000, #154 ) ;
#32 = ORIENTED_EDGE ( 'NONE', *, *, #75, .F. ) ;
#33 = VERTEX_POINT ( 'NONE', #212 ) ;
#34 = FACE_OUTER_BOUND ( 'NONE', #84, .T. ) ;
#35 = CARTESIAN_POINT ( 'NONE',  ( 0.000000000000000000, -1.414213562373090705, -1.414213562373093369 ) ) ;
#36 = EDGE_CURVE ( 'NONE', #133, #33, #132, .T. ) ;
#37 = CARTESIAN_POINT ( 'NONE',  ( 0.000000000000000000, -1.414213562373096256, -1.414213562373093369 ) ) ;
#38 = CC_DESIGN_SECURITY_CLASSIFICATION ( #93, ( #191 ) ) ;
#39 = CARTESIAN_POINT ( 'NONE',  ( 1.414213562373097810, -1.414213562373091815, -5.463695987328526437E-16 ) ) ;
#40 = CARTESIAN_POINT ( 'NONE',  ( -1.414213562373097810, -1.414213562373091815, -5.463695987328526437E-16 ) ) ;
#41 = VECTOR ( 'NONE', #182, 39.37007874015748854 ) ;
#42 = PERSON_AND_ORGANIZATION ( #79, #110 ) ;
#43 = PERSON_AND_ORGANIZATION ( #79, #110 ) ;
#44 = COORDINATED_UNIVERSAL_TIME_OFFSET ( 8, 0, .BEHIND. ) ;
#45 = AXIS2_PLACEMENT_3D ( 'NONE', #109, #174, #94 ) ;
#46 = VERTEX_POINT ( 'NONE', #129 ) ;
#47 = CC_DESIGN_PERSON_AND_ORGANIZATION_ASSIGNMENT ( #158, #122, ( #171 ) ) ;
#48 = CARTESIAN_POINT ( 'NONE',  ( -1.414213562373097810, -1.414213562373091815, -5.463695987328526437E-16 ) ) ;
#49 = AXIS2_PLACEMENT_3D ( 'NONE', #35, #6, #100 ) ;
#50 = SPHERICAL_SURFACE ( 'NONE', #115, 2.135000000000000231 ) ;
#51 = APPROVAL ( #72, 'UNSPECIFIED' ) ;
#52 = FACE_OUTER_BOUND ( 'NONE', #12, .T. ) ;
#53 = DIRECTION ( 'NONE',  ( -0.7071067811865486830, -2.559108190786194867E-16, 0.7071067811865463515 ) ) ;
#54 = LOCAL_TIME ( 10, 16, 31.00000000000000000, #104 ) ;
#55 = DIRECTION ( 'NONE',  ( -0.7071067811865486830, -2.731847993664262725E-16, 0.7071067811865462405 ) ) ;
#56 = APPLICATION_PROTOCOL_DEFINITION ( 'international standard', 'config_control_design', 1994, #183 ) ;
#57 = DATE_AND_TIME ( #177, #137 ) ;
#58 = CC_DESIGN_DATE_AND_TIME_ASSIGNMENT ( #153, #8, ( #93 ) ) ;
#59 = ORIENTED_EDGE ( 'NONE', *, *, #62, .F. ) ;
#60 = CIRCLE ( 'NONE', #185, 2.000000000000000000 ) ;
#61 = PERSON_AND_ORGANIZATION_ROLE ( 'design_supplier' ) ;
#62 = EDGE_CURVE ( 'NONE', #114, #133, #201, .T. ) ;
#63 = EDGE_LOOP ( 'NONE', ( #125, #161, #186 ) ) ;
#64 = CARTESIAN_POINT ( 'NONE',  ( 0.000000000000000000, -1.414213562373096256, -1.414213562373093369 ) ) ;
#65 = APPROVAL_PERSON_ORGANIZATION ( #121, #51, #106 ) ;
#66 = ORIENTED_EDGE ( 'NONE', *, *, #135, .T. ) ;
#67 = PRODUCT_DEFINITION ( 'UNKNOWN', '', #191, #26 ) ;
#68 = DIRECTION ( 'NONE',  ( 0.000000000000000000, 4.097771990496395814E-16, -1.000000000000000000 ) ) ;
#69 = DIRECTION ( 'NONE',  ( 0.000000000000000000, -1.000000000000000000, -4.097771990496395814E-16 ) ) ;
#70 =( LENGTH_UNIT ( ) NAMED_UNIT ( * ) SI_UNIT ( $, .METRE. ) );
#71 = FACE_OUTER_BOUND ( 'NONE', #107, .T. ) ;
#72 = APPROVAL_STATUS ( 'not_yet_approved' ) ;
#73 = UNCERTAINTY_MEASURE_WITH_UNIT (LENGTH_MEASURE( 1.000000000000000082E-05 ), #91, 'distance_accuracy_value', 'NONE');
#74 =( NAMED_UNIT ( * ) PLANE_ANGLE_UNIT ( ) SI_UNIT ( $, .RADIAN. ) );
#75 = EDGE_CURVE ( 'NONE', #164, #33, #60, .T. ) ;
#76 = APPROVAL_PERSON_ORGANIZATION ( #140, #105, #199 ) ;
#77 = MECHANICAL_CONTEXT ( 'NONE', #183, 'mechanical' ) ;
#78 = COORDINATED_UNIVERSAL_TIME_OFFSET ( 8, 0, .BEHIND. ) ;
#79 = PERSON ( 'UNSPECIFIED', 'UNSPECIFIED', 'UNSPECIFIED', ('UNSPECIFIED'), ('UNSPECIFIED'), ('UNSPECIFIED') ) ;
#80 = CARTESIAN_POINT ( 'NONE',  ( 0.000000000000000000, -1.414213562373091371, -1.414213562373093369 ) ) ;
#81 = ORIENTED_EDGE ( 'NONE', *, *, #62, .T. ) ;
#82 = DIRECTION ( 'NONE',  ( -0.7071067811865463515, 2.897562362236303877E-16, -0.7071067811865487940 ) ) ;
#83 = PRODUCT_DEFINITION_SHAPE ( 'NONE', 'NONE',  #67 ) ;
#84 = EDGE_LOOP ( 'NONE', ( #123, #175, #32 ) ) ;
#85 = ADVANCED_FACE ( 'NONE', ( #163 ), #19, .T. ) ;
#86 = DIRECTION ( 'NONE',  ( 0.7071067811865487940, 1.279554095393097433E-16, 0.7071067811865462405 ) ) ;
#87 = CARTESIAN_POINT ( 'NONE',  ( 0.000000000000000000, 0.5857864376269035223, -1.414213562373092703 ) ) ;
#88 = CIRCLE ( 'NONE', #211, 2.135000000000000231 ) ;
#89 = CALENDAR_DATE ( 2024, 21, 1 ) ;
#90 = CC_DESIGN_PERSON_AND_ORGANIZATION_ASSIGNMENT ( #13, #195, ( #93 ) ) ;
#91 =( CONVERSION_BASED_UNIT ( 'INCH', #156 ) LENGTH_UNIT ( ) NAMED_UNIT ( #95 ) );
#92 = PERSON_AND_ORGANIZATION_ROLE ( 'creator' ) ;
#93 = SECURITY_CLASSIFICATION ( '', '', #127 ) ;
#94 = DIRECTION ( 'NONE',  ( 1.000000000000000000, 0.000000000000000000, 0.000000000000000000 ) ) ;
#95 = DIMENSIONAL_EXPONENTS ( 1.000000000000000000, 0.000000000000000000, 0.000000000000000000, 0.000000000000000000, 0.000000000000000000, 0.000000000000000000, 0.000000000000000000 ) ;
#96 = PERSON_AND_ORGANIZATION ( #79, #110 ) ;
#97 = CLOSED_SHELL ( 'NONE', ( #145, #85, #120, #150, #204 ) ) ;
#98 = EDGE_CURVE ( 'NONE', #128, #46, #88, .T. ) ;
#99 = MANIFOLD_SOLID_BREP ( 'Revolve1', #97 ) ;
#100 = DIRECTION ( 'NONE',  ( 0.000000000000000000, -3.838662286179291560E-16, 1.000000000000000000 ) ) ;
#101 = DIRECTION ( 'NONE',  ( 0.7071067811865463515, -2.897562362236303877E-16, 0.7071067811865487940 ) ) ;
#102 = CC_DESIGN_APPROVAL ( #15, ( #67 ) ) ;
#103 = CIRCLE ( 'NONE', #2, 2.000000000000000444 ) ;
#104 = COORDINATED_UNIVERSAL_TIME_OFFSET ( 8, 0, .BEHIND. ) ;
#105 = APPROVAL ( #124, 'UNSPECIFIED' ) ;
#106 = APPROVAL_ROLE ( '' ) ;
#107 = EDGE_LOOP ( 'NONE', ( #157, #59, #28, #112 ) ) ;
#108 = APPROVAL_STATUS ( 'not_yet_approved' ) ;
#109 = CARTESIAN_POINT ( 'NONE',  ( 0.000000000000000000, 0.000000000000000000, 0.000000000000000000 ) ) ;
#110 = ORGANIZATION ( 'UNSPECIFIED', 'UNSPECIFIED', '' ) ;
#111 = DATE_AND_TIME ( #11, #31 ) ;
#112 = ORIENTED_EDGE ( 'NONE', *, *, #135, .F. ) ;
#113 = CC_DESIGN_PERSON_AND_ORGANIZATION_ASSIGNMENT ( #43, #210, ( #191 ) ) ;
#114 = VERTEX_POINT ( 'NONE', #165 ) ;
#115 = AXIS2_PLACEMENT_3D ( 'NONE', #151, #187, #53 ) ;
#116 = LINE ( 'NONE', #87, #23 ) ;
#117 = CARTESIAN_POINT ( 'NONE',  ( -1.414213562373097810, -1.414213562373091593, -5.463695987328525451E-16 ) ) ;
#118 = APPROVAL_DATE_TIME ( #57, #15 ) ;
#119 = CIRCLE ( 'NONE', #5, 2.135000000000000231 ) ;
#120 = ADVANCED_FACE ( 'NONE', ( #136 ), #50, .T. ) ;
#121 = PERSON_AND_ORGANIZATION ( #79, #110 ) ;
#122 = PERSON_AND_ORGANIZATION_ROLE ( 'design_owner' ) ;
#123 = ORIENTED_EDGE ( 'NONE', *, *, #25, .F. ) ;
#124 = APPROVAL_STATUS ( 'not_yet_approved' ) ;
#125 = ORIENTED_EDGE ( 'NONE', *, *, #98, .F. ) ;
#126 = AXIS2_PLACEMENT_3D ( 'NONE', #20, #190, #170 ) ;
#127 = SECURITY_CLASSIFICATION_LEVEL ( 'unclassified' ) ;
#128 = VERTEX_POINT ( 'NONE', #206 ) ;
#129 = CARTESIAN_POINT ( 'NONE',  ( 1.509672977833282026, -1.414213562373091371, 0.09545941546018343882 ) ) ;
#130 = CC_DESIGN_APPROVAL ( #51, ( #93 ) ) ;
#131 = DIRECTION ( 'NONE',  ( -0.7071067811865463515, -2.897562362236303384E-16, 0.7071067811865487940 ) ) ;
#132 = CIRCLE ( 'NONE', #152, 2.000000000000000000 ) ;
#133 = VERTEX_POINT ( 'NONE', #40 ) ;
#134 = DIRECTION ( 'NONE',  ( 0.7071067811865463515, 2.897562362236303384E-16, -0.7071067811865487940 ) ) ;
#135 = EDGE_CURVE ( 'NONE', #33, #128, #116, .T. ) ;
#136 = FACE_OUTER_BOUND ( 'NONE', #63, .T. ) ;
#137 = LOCAL_TIME ( 10, 16, 31.00000000000000000, #44 ) ;
#138 = APPROVAL_DATE_TIME ( #111, #105 ) ;
#139 =( NAMED_UNIT ( * ) SI_UNIT ( $, .STERADIAN. ) SOLID_ANGLE_UNIT ( ) );
#140 = PERSON_AND_ORGANIZATION ( #79, #110 ) ;
#141 = DATE_TIME_ROLE ( 'creation_date' ) ;
#142 = ORIENTED_EDGE ( 'NONE', *, *, #176, .F. ) ;
#143 = CIRCLE ( 'NONE', #49, 2.135000000000000675 ) ;
#144 = SHAPE_DEFINITION_REPRESENTATION ( #83, #166 ) ;
#145 = ADVANCED_FACE ( 'NONE', ( #34 ), #149, .F. ) ;
#146 = DIRECTION ( 'NONE',  ( 0.000000000000000000, -4.097771990496393842E-16, 1.000000000000000000 ) ) ;
#147 = APPROVAL_PERSON_ORGANIZATION ( #42, #15, #30 ) ;
#148 = EDGE_LOOP ( 'NONE', ( #142, #81, #180, #179 ) ) ;
#149 = SPHERICAL_SURFACE ( 'NONE', #159, 2.000000000000000000 ) ;
#150 = ADVANCED_FACE ( 'NONE', ( #71 ), #193, .T. ) ;
#151 = CARTESIAN_POINT ( 'NONE',  ( 0.000000000000000000, -1.414213562373096256, -1.414213562373093369 ) ) ;
#152 = AXIS2_PLACEMENT_3D ( 'NONE', #64, #82, #18 ) ;
#153 = DATE_AND_TIME ( #89, #54 ) ;
#154 = COORDINATED_UNIVERSAL_TIME_OFFSET ( 8, 0, .BEHIND. ) ;
#155 = CC_DESIGN_APPROVAL ( #105, ( #191 ) ) ;
#156 = LENGTH_MEASURE_WITH_UNIT ( LENGTH_MEASURE( 0.02539999999999999897 ), #70 );
#157 = ORIENTED_EDGE ( 'NONE', *, *, #36, .F. ) ;
#158 = PERSON_AND_ORGANIZATION ( #79, #110 ) ;
#159 = AXIS2_PLACEMENT_3D ( 'NONE', #37, #173, #55 ) ;
#160 = EDGE_CURVE ( 'NONE', #128, #114, #119, .T. ) ;
#161 = ORIENTED_EDGE ( 'NONE', *, *, #160, .T. ) ;
#162 = CARTESIAN_POINT ( 'NONE',  ( 0.000000000000000000, -1.414213562373096256, -1.414213562373093369 ) ) ;
#163 = FACE_OUTER_BOUND ( 'NONE', #148, .T. ) ;
#164 = VERTEX_POINT ( 'NONE', #189 ) ;
#165 = CARTESIAN_POINT ( 'NONE',  ( -1.509672977833282248, -1.414213562373091371, 0.09545941546018336943 ) ) ;
#166 = ADVANCED_BREP_SHAPE_REPRESENTATION ( '400509', ( #99, #45 ), #207 ) ;
#167 = PLANE ( 'NONE',  #126 ) ;
#168 = LOCAL_TIME ( 10, 16, 31.00000000000000000, #78 ) ;
#169 = LINE ( 'NONE', #39, #172 ) ;
#170 = DIRECTION ( 'NONE',  ( 0.7071067811865486830, 1.200209628260102044E-16, 0.7071067811865462405 ) ) ;
#171 = PRODUCT ( '400509', '400509', '', ( #77 ) ) ;
#172 = VECTOR ( 'NONE', #22, 39.37007874015748854 ) ;
#173 = DIRECTION ( 'NONE',  ( 0.7071067811865462405, -2.897562362236303877E-16, 0.7071067811865487940 ) ) ;
#174 = DIRECTION ( 'NONE',  ( 0.000000000000000000, 0.000000000000000000, 1.000000000000000000 ) ) ;
#175 = ORIENTED_EDGE ( 'NONE', *, *, #36, .T. ) ;
#176 = EDGE_CURVE ( 'NONE', #114, #46, #143, .T. ) ;
#177 = CALENDAR_DATE ( 2024, 21, 1 ) ;
#178 = APPLICATION_PROTOCOL_DEFINITION ( 'international standard', 'config_control_design', 1994, #198 ) ;
#179 = ORIENTED_EDGE ( 'NONE', *, *, #213, .F. ) ;
#180 = ORIENTED_EDGE ( 'NONE', *, *, #25, .T. ) ;
#181 = APPROVAL_DATE_TIME ( #17, #51 ) ;
#182 = DIRECTION ( 'NONE',  ( 0.7071067811865486830, -4.167203175661944792E-15, -0.7071067811865462405 ) ) ;
#183 = APPLICATION_CONTEXT ( 'configuration controlled 3d designs of mechanical parts and assemblies' ) ;
#184 = DIRECTION ( 'NONE',  ( -0.000000000000000000, 1.000000000000000000, 4.097771990496395814E-16 ) ) ;
#185 = AXIS2_PLACEMENT_3D ( 'NONE', #162, #131, #202 ) ;
#186 = ORIENTED_EDGE ( 'NONE', *, *, #176, .T. ) ;
#187 = DIRECTION ( 'NONE',  ( 0.7071067811865463515, -2.897562362236303384E-16, 0.7071067811865486830 ) ) ;
#188 = CC_DESIGN_PERSON_AND_ORGANIZATION_ASSIGNMENT ( #27, #92, ( #67 ) ) ;
#189 = CARTESIAN_POINT ( 'NONE',  ( 1.414213562373097810, -1.414213562373091815, -5.463695987328526437E-16 ) ) ;
#190 = DIRECTION ( 'NONE',  ( -0.7071067811865463515, -2.897562362236303877E-16, 0.7071067811865487940 ) ) ;
#191 = PRODUCT_DEFINITION_FORMATION_WITH_SPECIFIED_SOURCE ( 'ANY', '', #171, .NOT_KNOWN. ) ;
#192 = DIRECTION ( 'NONE',  ( -1.141138757473308761E-15, 1.000000000000000000, 1.550915956522944200E-15 ) ) ;
#193 = PLANE ( 'NONE',  #194 ) ;
#194 = AXIS2_PLACEMENT_3D ( 'NONE', #3, #24, #7 ) ;
#195 = PERSON_AND_ORGANIZATION_ROLE ( 'classification_officer' ) ;
#196 = COORDINATED_UNIVERSAL_TIME_OFFSET ( 8, 0, .BEHIND. ) ;
#197 = CC_DESIGN_DATE_AND_TIME_ASSIGNMENT ( #29, #141, ( #67 ) ) ;
#198 = APPLICATION_CONTEXT ( 'configuration controlled 3d designs of mechanical parts and assemblies' ) ;
#199 = APPROVAL_ROLE ( '' ) ;
#200 = ORIENTED_EDGE ( 'NONE', *, *, #98, .T. ) ;
#201 = LINE ( 'NONE', #48, #41 ) ;
#202 = DIRECTION ( 'NONE',  ( 0.7071067811865487940, 1.365923996832131609E-16, 0.7071067811865463515 ) ) ;
#203 = CARTESIAN_POINT ( 'NONE',  ( 0.000000000000000000, -1.414213562373096256, -1.414213562373093369 ) ) ;
#204 = ADVANCED_FACE ( 'NONE', ( #52 ), #167, .F. ) ;
#205 = CARTESIAN_POINT ( 'NONE',  ( 0.000000000000000000, -1.414213562373096256, -1.414213562373093369 ) ) ;
#206 = CARTESIAN_POINT ( 'NONE',  ( -2.731847993664263218E-16, 0.7207864376269038642, -1.414213562373092481 ) ) ;
#207 =( GEOMETRIC_REPRESENTATION_CONTEXT ( 3 ) GLOBAL_UNCERTAINTY_ASSIGNED_CONTEXT ( ( #73 ) ) GLOBAL_UNIT_ASSIGNED_CONTEXT ( ( #91, #74, #139 ) ) REPRESENTATION_CONTEXT ( 'NONE', 'WORKASPACE' ) );
#208 = CALENDAR_DATE ( 2024, 21, 1 ) ;
#209 = PRODUCT_RELATED_PRODUCT_CATEGORY ( 'detail', '', ( #171 ) ) ;
#210 = PERSON_AND_ORGANIZATION_ROLE ( 'creator' ) ;
#211 = AXIS2_PLACEMENT_3D ( 'NONE', #203, #134, #86 ) ;
#212 = CARTESIAN_POINT ( 'NONE',  ( 0.000000000000000000, 0.5857864376269035223, -1.414213562373092703 ) ) ;
#213 = EDGE_CURVE ( 'NONE', #46, #164, #169, .T. ) ;
ENDSEC;
END-ISO-10303-21;
