ISO-10303-21;
HEADER;
FILE_DESCRIPTION (( 'STEP AP203' ),
    '1' );
FILE_NAME ('400906.STEP',
    '2024-01-21T18:18:24',
    ( '' ),
    ( '' ),
    'SwSTEP 2.0',
    'SolidWorks 2021',
    '' );
FILE_SCHEMA (( 'CONFIG_CONTROL_DESIGN' ));
ENDSEC;

DATA;
#1 = ORIENTED_EDGE ( 'NONE', *, *, #213, .F. ) ;
#2 = DESIGN_CONTEXT ( 'detailed design', #116, 'design' ) ;
#3 = CARTESIAN_POINT ( 'NONE',  ( -1.414213562373097810, -1.414213562373091593, -5.463695987328525451E-16 ) ) ;
#4 = ORIENTED_EDGE ( 'NONE', *, *, #105, .T. ) ;
#5 = ORGANIZATION ( 'UNSPECIFIED', 'UNSPECIFIED', '' ) ;
#6 = CARTESIAN_POINT ( 'NONE',  ( -2.731847993664263218E-16, 0.7107864376269036333, -1.414213562373092481 ) ) ;
#7 = LINE ( 'NONE', #172, #134 ) ;
#8 = DIRECTION ( 'NONE',  ( 0.000000000000000000, -3.856726579290723703E-16, 1.000000000000000000 ) ) ;
#9 = APPROVAL_STATUS ( 'not_yet_approved' ) ;
#10 = APPROVAL ( #70, 'UNSPECIFIED' ) ;
#11 = CIRCLE ( 'NONE', #52, 2.125000000000000000 ) ;
#12 = PERSON_AND_ORGANIZATION_ROLE ( 'creator' ) ;
#13 = ADVANCED_FACE ( 'NONE', ( #63 ), #150, .T. ) ;
#14 = APPROVAL_DATE_TIME ( #92, #41 ) ;
#15 = LOCAL_TIME ( 10, 18, 24.00000000000000000, #43 ) ;
#16 = ORIENTED_EDGE ( 'NONE', *, *, #160, .F. ) ;
#17 = CC_DESIGN_APPROVAL ( #41, ( #201 ) ) ;
#18 = ORIENTED_EDGE ( 'NONE', *, *, #46, .T. ) ;
#19 = CARTESIAN_POINT ( 'NONE',  ( 0.000000000000000000, -1.414213562373096256, -1.414213562373093369 ) ) ;
#20 = CARTESIAN_POINT ( 'NONE',  ( 1.502601910021416298, -1.414213562373091371, 0.08838834764831769719 ) ) ;
#21 = FACE_OUTER_BOUND ( 'NONE', #29, .T. ) ;
#22 = CC_DESIGN_PERSON_AND_ORGANIZATION_ASSIGNMENT ( #179, #209, ( #183 ) ) ;
#23 =( GEOMETRIC_REPRESENTATION_CONTEXT ( 3 ) GLOBAL_UNCERTAINTY_ASSIGNED_CONTEXT ( ( #45 ) ) GLOBAL_UNIT_ASSIGNED_CONTEXT ( ( #93, #193, #128 ) ) REPRESENTATION_CONTEXT ( 'NONE', 'WORKASPACE' ) );
#24 = LINE ( 'NONE', #88, #154 ) ;
#25 = PERSON_AND_ORGANIZATION_ROLE ( 'design_owner' ) ;
#26 = CALENDAR_DATE ( 2024, 21, 1 ) ;
#27 = COORDINATED_UNIVERSAL_TIME_OFFSET ( 8, 0, .BEHIND. ) ;
#28 = CIRCLE ( 'NONE', #207, 2.000000000000000444 ) ;
#29 = EDGE_LOOP ( 'NONE', ( #62, #98, #1 ) ) ;
#30 = CIRCLE ( 'NONE', #107, 2.000000000000000000 ) ;
#31 = ORIENTED_EDGE ( 'NONE', *, *, #105, .F. ) ;
#32 = DIRECTION ( 'NONE',  ( -0.7071067811865487940, 1.365923996832131609E-16, 0.7071067811865463515 ) ) ;
#33 = DIRECTION ( 'NONE',  ( -0.7071067811865486830, -4.490977752688834633E-15, -0.7071067811865462405 ) ) ;
#34 = AXIS2_PLACEMENT_3D ( 'NONE', #65, #106, #50 ) ;
#35 = SPHERICAL_SURFACE ( 'NONE', #95, 2.125000000000000000 ) ;
#36 = DIRECTION ( 'NONE',  ( -0.7071067811865463515, -2.897562362236303877E-16, 0.7071067811865487940 ) ) ;
#37 = SPHERICAL_SURFACE ( 'NONE', #42, 2.000000000000000000 ) ;
#38 = LOCAL_TIME ( 10, 18, 24.00000000000000000, #161 ) ;
#39 = APPLICATION_PROTOCOL_DEFINITION ( 'international standard', 'config_control_design', 1994, #132 ) ;
#40 = PERSON_AND_ORGANIZATION ( #78, #5 ) ;
#41 = APPROVAL ( #9, 'UNSPECIFIED' ) ;
#42 = AXIS2_PLACEMENT_3D ( 'NONE', #202, #153, #200 ) ;
#43 = COORDINATED_UNIVERSAL_TIME_OFFSET ( 8, 0, .BEHIND. ) ;
#44 = VERTEX_POINT ( 'NONE', #6 ) ;
#45 = UNCERTAINTY_MEASURE_WITH_UNIT (LENGTH_MEASURE( 1.000000000000000082E-05 ), #93, 'distance_accuracy_value', 'NONE');
#46 = EDGE_CURVE ( 'NONE', #58, #198, #121, .T. ) ;
#47 = DIRECTION ( 'NONE',  ( 0.000000000000000000, 4.097771990496395814E-16, -1.000000000000000000 ) ) ;
#48 = APPROVAL_PERSON_ORGANIZATION ( #142, #97, #130 ) ;
#49 = DIRECTION ( 'NONE',  ( 0.7071067811865487940, 1.285575526430241399E-16, 0.7071067811865463515 ) ) ;
#50 = DIRECTION ( 'NONE',  ( -0.7071067811865486830, 1.200209628260102537E-16, 0.7071067811865462405 ) ) ;
#51 = CARTESIAN_POINT ( 'NONE',  ( -1.414213562373097810, -1.414213562373091815, -5.463695987328526437E-16 ) ) ;
#52 = AXIS2_PLACEMENT_3D ( 'NONE', #19, #155, #138 ) ;
#53 = DIRECTION ( 'NONE',  ( -1.255610356969065884E-15, 1.000000000000000000, 1.665387556018700733E-15 ) ) ;
#54 = CALENDAR_DATE ( 2024, 21, 1 ) ;
#55 = CC_DESIGN_APPROVAL ( #97, ( #183 ) ) ;
#56 = LENGTH_MEASURE_WITH_UNIT ( LENGTH_MEASURE( 0.02539999999999999897 ), #190 );
#57 = DATE_AND_TIME ( #208, #146 ) ;
#58 = VERTEX_POINT ( 'NONE', #20 ) ;
#59 = CC_DESIGN_PERSON_AND_ORGANIZATION_ASSIGNMENT ( #111, #25, ( #114 ) ) ;
#60 = AXIS2_PLACEMENT_3D ( 'NONE', #3, #136, #47 ) ;
#61 = ORIENTED_EDGE ( 'NONE', *, *, #181, .T. ) ;
#62 = ORIENTED_EDGE ( 'NONE', *, *, #76, .F. ) ;
#63 = FACE_OUTER_BOUND ( 'NONE', #80, .T. ) ;
#64 = AXIS2_PLACEMENT_3D ( 'NONE', #140, #66, #49 ) ;
#65 = CARTESIAN_POINT ( 'NONE',  ( 0.000000000000000000, -1.414213562373096256, -1.414213562373093369 ) ) ;
#66 = DIRECTION ( 'NONE',  ( 0.7071067811865463515, 2.897562362236303384E-16, -0.7071067811865487940 ) ) ;
#67 = FACE_OUTER_BOUND ( 'NONE', #118, .T. ) ;
#68 = CARTESIAN_POINT ( 'NONE',  ( 0.000000000000000000, -1.414213562373090705, -1.414213562373093369 ) ) ;
#69 = CARTESIAN_POINT ( 'NONE',  ( 0.000000000000000000, 0.5857864376269035223, -1.414213562373092703 ) ) ;
#70 = APPROVAL_STATUS ( 'not_yet_approved' ) ;
#71 = DIRECTION ( 'NONE',  ( 0.000000000000000000, 0.000000000000000000, 1.000000000000000000 ) ) ;
#72 = PERSON_AND_ORGANIZATION ( #78, #5 ) ;
#73 = PERSON_AND_ORGANIZATION ( #78, #5 ) ;
#74 = SHAPE_DEFINITION_REPRESENTATION ( #87, #180 ) ;
#75 = CIRCLE ( 'NONE', #115, 2.000000000000000000 ) ;
#76 = EDGE_CURVE ( 'NONE', #168, #198, #28, .T. ) ;
#77 = VERTEX_POINT ( 'NONE', #69 ) ;
#78 = PERSON ( 'UNSPECIFIED', 'UNSPECIFIED', 'UNSPECIFIED', ('UNSPECIFIED'), ('UNSPECIFIED'), ('UNSPECIFIED') ) ;
#79 = APPROVAL_DATE_TIME ( #148, #97 ) ;
#80 = EDGE_LOOP ( 'NONE', ( #135, #133, #212, #184 ) ) ;
#81 = AXIS2_PLACEMENT_3D ( 'NONE', #145, #71, #165 ) ;
#82 = ORIENTED_EDGE ( 'NONE', *, *, #113, .T. ) ;
#83 = ORIENTED_EDGE ( 'NONE', *, *, #113, .F. ) ;
#84 = CARTESIAN_POINT ( 'NONE',  ( 0.000000000000000000, -1.414213562373091371, -1.414213562373093369 ) ) ;
#85 = PLANE ( 'NONE',  #34 ) ;
#86 = DIRECTION ( 'NONE',  ( -0.000000000000000000, 1.000000000000000000, 4.097771990496395814E-16 ) ) ;
#87 = PRODUCT_DEFINITION_SHAPE ( 'NONE', 'NONE',  #201 ) ;
#88 = CARTESIAN_POINT ( 'NONE',  ( 0.000000000000000000, 0.5857864376269035223, -1.414213562373092703 ) ) ;
#89 = PRODUCT_DEFINITION_FORMATION_WITH_SPECIFIED_SOURCE ( 'ANY', '', #114, .NOT_KNOWN. ) ;
#90 = CARTESIAN_POINT ( 'NONE',  ( -1.502601910021416520, -1.414213562373091371, 0.08838834764831755841 ) ) ;
#91 = DATE_TIME_ROLE ( 'creation_date' ) ;
#92 = DATE_AND_TIME ( #143, #38 ) ;
#93 =( CONVERSION_BASED_UNIT ( 'INCH', #56 ) LENGTH_UNIT ( ) NAMED_UNIT ( #122 ) );
#94 = CC_DESIGN_PERSON_AND_ORGANIZATION_ASSIGNMENT ( #73, #131, ( #201 ) ) ;
#95 = AXIS2_PLACEMENT_3D ( 'NONE', #203, #170, #104 ) ;
#96 = ORIENTED_EDGE ( 'NONE', *, *, #196, .F. ) ;
#97 = APPROVAL ( #205, 'UNSPECIFIED' ) ;
#98 = ORIENTED_EDGE ( 'NONE', *, *, #196, .T. ) ;
#99 = ORIENTED_EDGE ( 'NONE', *, *, #181, .F. ) ;
#100 = ADVANCED_FACE ( 'NONE', ( #21 ), #37, .F. ) ;
#101 = CARTESIAN_POINT ( 'NONE',  ( 0.000000000000000000, -1.414213562373096256, -1.414213562373093369 ) ) ;
#102 = CIRCLE ( 'NONE', #64, 2.125000000000000000 ) ;
#103 = FACE_OUTER_BOUND ( 'NONE', #166, .T. ) ;
#104 = DIRECTION ( 'NONE',  ( -0.7071067811865487940, -2.571151052860482797E-16, 0.7071067811865463515 ) ) ;
#105 = EDGE_CURVE ( 'NONE', #44, #58, #102, .T. ) ;
#106 = DIRECTION ( 'NONE',  ( -0.7071067811865463515, 2.897562362236303877E-16, -0.7071067811865487940 ) ) ;
#107 = AXIS2_PLACEMENT_3D ( 'NONE', #188, #125, #141 ) ;
#108 = MECHANICAL_CONTEXT ( 'NONE', #132, 'mechanical' ) ;
#109 = PRODUCT_RELATED_PRODUCT_CATEGORY ( 'detail', '', ( #114 ) ) ;
#110 = APPROVAL_ROLE ( '' ) ;
#111 = PERSON_AND_ORGANIZATION ( #78, #5 ) ;
#112 = DATE_AND_TIME ( #175, #15 ) ;
#113 = EDGE_CURVE ( 'NONE', #44, #182, #11, .T. ) ;
#114 = PRODUCT ( '400906', '400906', '', ( #108 ) ) ;
#115 = AXIS2_PLACEMENT_3D ( 'NONE', #156, #120, #32 ) ;
#116 = APPLICATION_CONTEXT ( 'configuration controlled 3d designs of mechanical parts and assemblies' ) ;
#117 = ORIENTED_EDGE ( 'NONE', *, *, #211, .T. ) ;
#118 = EDGE_LOOP ( 'NONE', ( #31, #82, #117 ) ) ;
#119 = LOCAL_TIME ( 10, 18, 24.00000000000000000, #27 ) ;
#120 = DIRECTION ( 'NONE',  ( -0.7071067811865463515, 2.897562362236303877E-16, -0.7071067811865487940 ) ) ;
#121 = LINE ( 'NONE', #186, #149 ) ;
#122 = DIMENSIONAL_EXPONENTS ( 1.000000000000000000, 0.000000000000000000, 0.000000000000000000, 0.000000000000000000, 0.000000000000000000, 0.000000000000000000, 0.000000000000000000 ) ;
#123 = APPROVAL_PERSON_ORGANIZATION ( #40, #41, #173 ) ;
#124 = PLANE ( 'NONE',  #177 ) ;
#125 = DIRECTION ( 'NONE',  ( -0.7071067811865463515, -2.897562362236303384E-16, 0.7071067811865487940 ) ) ;
#126 = DATE_AND_TIME ( #54, #119 ) ;
#127 = LOCAL_TIME ( 10, 18, 24.00000000000000000, #194 ) ;
#128 =( NAMED_UNIT ( * ) SI_UNIT ( $, .STERADIAN. ) SOLID_ANGLE_UNIT ( ) );
#129 = PERSON_AND_ORGANIZATION ( #78, #5 ) ;
#130 = APPROVAL_ROLE ( '' ) ;
#131 = PERSON_AND_ORGANIZATION_ROLE ( 'creator' ) ;
#132 = APPLICATION_CONTEXT ( 'configuration controlled 3d designs of mechanical parts and assemblies' ) ;
#133 = ORIENTED_EDGE ( 'NONE', *, *, #160, .T. ) ;
#134 = VECTOR ( 'NONE', #189, 39.37007874015748854 ) ;
#135 = ORIENTED_EDGE ( 'NONE', *, *, #211, .F. ) ;
#136 = DIRECTION ( 'NONE',  ( 0.000000000000000000, -1.000000000000000000, -4.097771990496395814E-16 ) ) ;
#137 = DIRECTION ( 'NONE',  ( 0.000000000000000000, -4.097771990496393842E-16, 1.000000000000000000 ) ) ;
#138 = DIRECTION ( 'NONE',  ( -0.7071067811865487940, 1.285575526430241399E-16, 0.7071067811865463515 ) ) ;
#139 = ADVANCED_FACE ( 'NONE', ( #103 ), #124, .F. ) ;
#140 = CARTESIAN_POINT ( 'NONE',  ( 0.000000000000000000, -1.414213562373096256, -1.414213562373093369 ) ) ;
#141 = DIRECTION ( 'NONE',  ( 0.7071067811865487940, 1.365923996832131609E-16, 0.7071067811865463515 ) ) ;
#142 = PERSON_AND_ORGANIZATION ( #78, #5 ) ;
#143 = CALENDAR_DATE ( 2024, 21, 1 ) ;
#144 = PERSON_AND_ORGANIZATION ( #78, #5 ) ;
#145 = CARTESIAN_POINT ( 'NONE',  ( 0.000000000000000000, 0.000000000000000000, 0.000000000000000000 ) ) ;
#146 = LOCAL_TIME ( 10, 18, 24.00000000000000000, #192 ) ;
#147 = CC_DESIGN_PERSON_AND_ORGANIZATION_ASSIGNMENT ( #72, #204, ( #89 ) ) ;
#148 = DATE_AND_TIME ( #26, #127 ) ;
#149 = VECTOR ( 'NONE', #33, 39.37007874015748854 ) ;
#150 = PLANE ( 'NONE',  #60 ) ;
#151 = CC_DESIGN_PERSON_AND_ORGANIZATION_ASSIGNMENT ( #144, #12, ( #89 ) ) ;
#152 = EDGE_LOOP ( 'NONE', ( #96, #16, #83, #99 ) ) ;
#153 = DIRECTION ( 'NONE',  ( 0.7071067811865462405, -2.897562362236303877E-16, 0.7071067811865487940 ) ) ;
#154 = VECTOR ( 'NONE', #53, 39.37007874015748143 ) ;
#155 = DIRECTION ( 'NONE',  ( 0.7071067811865463515, -2.897562362236303877E-16, 0.7071067811865487940 ) ) ;
#156 = CARTESIAN_POINT ( 'NONE',  ( 0.000000000000000000, -1.414213562373096256, -1.414213562373093369 ) ) ;
#157 = CC_DESIGN_APPROVAL ( #10, ( #89 ) ) ;
#158 = DIRECTION ( 'NONE',  ( 0.7071067811865486830, 1.200209628260102044E-16, 0.7071067811865462405 ) ) ;
#159 = MANIFOLD_SOLID_BREP ( 'Revolve1', #162 ) ;
#160 = EDGE_CURVE ( 'NONE', #182, #168, #7, .T. ) ;
#161 = COORDINATED_UNIVERSAL_TIME_OFFSET ( 8, 0, .BEHIND. ) ;
#162 = CLOSED_SHELL ( 'NONE', ( #100, #13, #176, #169, #139 ) ) ;
#163 = APPROVAL_DATE_TIME ( #112, #10 ) ;
#164 = CC_DESIGN_DATE_AND_TIME_ASSIGNMENT ( #126, #191, ( #183 ) ) ;
#165 = DIRECTION ( 'NONE',  ( 1.000000000000000000, 0.000000000000000000, 0.000000000000000000 ) ) ;
#166 = EDGE_LOOP ( 'NONE', ( #197, #61, #4, #18 ) ) ;
#167 = CC_DESIGN_DATE_AND_TIME_ASSIGNMENT ( #57, #91, ( #201 ) ) ;
#168 = VERTEX_POINT ( 'NONE', #51 ) ;
#169 = ADVANCED_FACE ( 'NONE', ( #199 ), #85, .T. ) ;
#170 = DIRECTION ( 'NONE',  ( 0.7071067811865463515, -2.897562362236302891E-16, 0.7071067811865487940 ) ) ;
#171 = CARTESIAN_POINT ( 'NONE',  ( 1.414213562373097810, -1.414213562373091815, -5.463695987328526437E-16 ) ) ;
#172 = CARTESIAN_POINT ( 'NONE',  ( -1.414213562373097810, -1.414213562373091815, -5.463695987328526437E-16 ) ) ;
#173 = APPROVAL_ROLE ( '' ) ;
#174 = APPLICATION_PROTOCOL_DEFINITION ( 'international standard', 'config_control_design', 1994, #116 ) ;
#175 = CALENDAR_DATE ( 2024, 21, 1 ) ;
#176 = ADVANCED_FACE ( 'NONE', ( #67 ), #35, .T. ) ;
#177 = AXIS2_PLACEMENT_3D ( 'NONE', #101, #36, #158 ) ;
#178 = SECURITY_CLASSIFICATION_LEVEL ( 'unclassified' ) ;
#179 = PERSON_AND_ORGANIZATION ( #78, #5 ) ;
#180 = ADVANCED_BREP_SHAPE_REPRESENTATION ( '400906', ( #159, #81 ), #23 ) ;
#181 = EDGE_CURVE ( 'NONE', #77, #44, #24, .T. ) ;
#182 = VERTEX_POINT ( 'NONE', #90 ) ;
#183 = SECURITY_CLASSIFICATION ( '', '', #178 ) ;
#184 = ORIENTED_EDGE ( 'NONE', *, *, #46, .F. ) ;
#185 = DIRECTION ( 'NONE',  ( -0.000000000000000000, 1.000000000000000000, 4.097771990496395814E-16 ) ) ;
#186 = CARTESIAN_POINT ( 'NONE',  ( 1.414213562373097810, -1.414213562373091815, -5.463695987328526437E-16 ) ) ;
#187 = CIRCLE ( 'NONE', #195, 2.125000000000000444 ) ;
#188 = CARTESIAN_POINT ( 'NONE',  ( 0.000000000000000000, -1.414213562373096256, -1.414213562373093369 ) ) ;
#189 = DIRECTION ( 'NONE',  ( 0.7071067811865486830, -4.490977752688834633E-15, -0.7071067811865462405 ) ) ;
#190 =( LENGTH_UNIT ( ) NAMED_UNIT ( * ) SI_UNIT ( $, .METRE. ) );
#191 = DATE_TIME_ROLE ( 'classification_date' ) ;
#192 = COORDINATED_UNIVERSAL_TIME_OFFSET ( 8, 0, .BEHIND. ) ;
#193 =( NAMED_UNIT ( * ) PLANE_ANGLE_UNIT ( ) SI_UNIT ( $, .RADIAN. ) );
#194 = COORDINATED_UNIVERSAL_TIME_OFFSET ( 8, 0, .BEHIND. ) ;
#195 = AXIS2_PLACEMENT_3D ( 'NONE', #68, #185, #8 ) ;
#196 = EDGE_CURVE ( 'NONE', #168, #77, #75, .T. ) ;
#197 = ORIENTED_EDGE ( 'NONE', *, *, #213, .T. ) ;
#198 = VERTEX_POINT ( 'NONE', #171 ) ;
#199 = FACE_OUTER_BOUND ( 'NONE', #152, .T. ) ;
#200 = DIRECTION ( 'NONE',  ( -0.7071067811865486830, -2.731847993664262725E-16, 0.7071067811865462405 ) ) ;
#201 = PRODUCT_DEFINITION ( 'UNKNOWN', '', #89, #2 ) ;
#202 = CARTESIAN_POINT ( 'NONE',  ( 0.000000000000000000, -1.414213562373096256, -1.414213562373093369 ) ) ;
#203 = CARTESIAN_POINT ( 'NONE',  ( 0.000000000000000000, -1.414213562373096256, -1.414213562373093369 ) ) ;
#204 = PERSON_AND_ORGANIZATION_ROLE ( 'design_supplier' ) ;
#205 = APPROVAL_STATUS ( 'not_yet_approved' ) ;
#206 = CC_DESIGN_SECURITY_CLASSIFICATION ( #183, ( #89 ) ) ;
#207 = AXIS2_PLACEMENT_3D ( 'NONE', #84, #86, #137 ) ;
#208 = CALENDAR_DATE ( 2024, 21, 1 ) ;
#209 = PERSON_AND_ORGANIZATION_ROLE ( 'classification_officer' ) ;
#210 = APPROVAL_PERSON_ORGANIZATION ( #129, #10, #110 ) ;
#211 = EDGE_CURVE ( 'NONE', #182, #58, #187, .T. ) ;
#212 = ORIENTED_EDGE ( 'NONE', *, *, #76, .T. ) ;
#213 = EDGE_CURVE ( 'NONE', #198, #77, #30, .T. ) ;
ENDSEC;
END-ISO-10303-21;
