ISO-10303-21;
HEADER;
FILE_DESCRIPTION (( 'STEP AP203' ),
    '1' );
FILE_NAME ('450504.STEP',
    '2024-01-21T18:08:37',
    ( '' ),
    ( '' ),
    'SwSTEP 2.0',
    'SolidWorks 2021',
    '' );
FILE_SCHEMA (( 'CONFIG_CONTROL_DESIGN' ));
ENDSEC;

DATA;
#1 = VERTEX_POINT ( 'NONE', #118 ) ;
#2 = DIRECTION ( 'NONE',  ( -0.7071067811865463515, 2.897562362236303877E-16, -0.7071067811865487940 ) ) ;
#3 = ORIENTED_EDGE ( 'NONE', *, *, #22, .F. ) ;
#4 = EDGE_CURVE ( 'NONE', #114, #113, #193, .T. ) ;
#5 = FACE_OUTER_BOUND ( 'NONE', #68, .T. ) ;
#6 = COORDINATED_UNIVERSAL_TIME_OFFSET ( 8, 0, .BEHIND. ) ;
#7 = PERSON_AND_ORGANIZATION_ROLE ( 'design_owner' ) ;
#8 = CC_DESIGN_PERSON_AND_ORGANIZATION_ASSIGNMENT ( #210, #84, ( #69 ) ) ;
#9 = DIRECTION ( 'NONE',  ( 0.000000000000000000, 4.097771990496395814E-16, -1.000000000000000000 ) ) ;
#10 = LOCAL_TIME ( 10, 8, 37.00000000000000000, #209 ) ;
#11 = CALENDAR_DATE ( 2024, 21, 1 ) ;
#12 = ADVANCED_FACE ( 'NONE', ( #70 ), #132, .T. ) ;
#13 = SHAPE_DEFINITION_REPRESENTATION ( #67, #53 ) ;
#14 = DATE_AND_TIME ( #125, #10 ) ;
#15 = DIRECTION ( 'NONE',  ( 0.7071067811865462405, -2.897562362236303877E-16, 0.7071067811865487940 ) ) ;
#16 = ORIENTED_EDGE ( 'NONE', *, *, #124, .T. ) ;
#17 = ORIENTED_EDGE ( 'NONE', *, *, #77, .T. ) ;
#18 = EDGE_LOOP ( 'NONE', ( #38, #49, #103 ) ) ;
#19 =( GEOMETRIC_REPRESENTATION_CONTEXT ( 3 ) GLOBAL_UNCERTAINTY_ASSIGNED_CONTEXT ( ( #117 ) ) GLOBAL_UNIT_ASSIGNED_CONTEXT ( ( #158, #79, #83 ) ) REPRESENTATION_CONTEXT ( 'NONE', 'WORKASPACE' ) );
#20 = ORIENTED_EDGE ( 'NONE', *, *, #157, .F. ) ;
#21 = ORIENTED_EDGE ( 'NONE', *, *, #72, .F. ) ;
#22 = EDGE_CURVE ( 'NONE', #153, #114, #201, .T. ) ;
#23 = CC_DESIGN_APPROVAL ( #116, ( #102 ) ) ;
#24 = LINE ( 'NONE', #85, #212 ) ;
#25 = APPROVAL ( #41, 'UNSPECIFIED' ) ;
#26 = CARTESIAN_POINT ( 'NONE',  ( 0.000000000000000000, -1.414213562373096256, -1.414213562373093369 ) ) ;
#27 = AXIS2_PLACEMENT_3D ( 'NONE', #26, #95, #162 ) ;
#28 = DIRECTION ( 'NONE',  ( 1.000000000000000000, 0.000000000000000000, 0.000000000000000000 ) ) ;
#29 = APPROVAL_STATUS ( 'not_yet_approved' ) ;
#30 = CARTESIAN_POINT ( 'NONE',  ( 0.000000000000000000, -1.414213562373096256, -1.414213562373093369 ) ) ;
#31 = COORDINATED_UNIVERSAL_TIME_OFFSET ( 8, 0, .BEHIND. ) ;
#32 = CC_DESIGN_SECURITY_CLASSIFICATION ( #205, ( #69 ) ) ;
#33 = LINE ( 'NONE', #169, #181 ) ;
#34 = LOCAL_TIME ( 10, 8, 37.00000000000000000, #31 ) ;
#35 = ORIENTED_EDGE ( 'NONE', *, *, #72, .T. ) ;
#36 = CC_DESIGN_APPROVAL ( #25, ( #205 ) ) ;
#37 = MECHANICAL_CONTEXT ( 'NONE', #160, 'mechanical' ) ;
#38 = ORIENTED_EDGE ( 'NONE', *, *, #150, .F. ) ;
#39 =( LENGTH_UNIT ( ) NAMED_UNIT ( * ) SI_UNIT ( $, .METRE. ) );
#40 = PERSON_AND_ORGANIZATION ( #165, #104 ) ;
#41 = APPROVAL_STATUS ( 'not_yet_approved' ) ;
#42 = CC_DESIGN_DATE_AND_TIME_ASSIGNMENT ( #63, #130, ( #205 ) ) ;
#43 = AXIS2_PLACEMENT_3D ( 'NONE', #45, #198, #94 ) ;
#44 = APPROVAL_PERSON_ORGANIZATION ( #122, #116, #74 ) ;
#45 = CARTESIAN_POINT ( 'NONE',  ( 0.000000000000000000, -1.414213562373096256, -1.414213562373093369 ) ) ;
#46 = DATE_AND_TIME ( #11, #133 ) ;
#47 = ORIENTED_EDGE ( 'NONE', *, *, #4, .T. ) ;
#48 = EDGE_LOOP ( 'NONE', ( #16, #17, #89, #35 ) ) ;
#49 = ORIENTED_EDGE ( 'NONE', *, *, #136, .T. ) ;
#50 = ADVANCED_FACE ( 'NONE', ( #5 ), #139, .T. ) ;
#51 = CARTESIAN_POINT ( 'NONE',  ( 0.000000000000000000, -1.414213562373096256, -1.414213562373093369 ) ) ;
#52 = FACE_OUTER_BOUND ( 'NONE', #199, .T. ) ;
#53 = ADVANCED_BREP_SHAPE_REPRESENTATION ( '450504', ( #105, #120 ), #19 ) ;
#54 = DIRECTION ( 'NONE',  ( 0.7071067811865463515, -2.897562362236303384E-16, 0.7071067811865486830 ) ) ;
#55 = PERSON_AND_ORGANIZATION ( #165, #104 ) ;
#56 = DIMENSIONAL_EXPONENTS ( 1.000000000000000000, 0.000000000000000000, 0.000000000000000000, 0.000000000000000000, 0.000000000000000000, 0.000000000000000000, 0.000000000000000000 ) ;
#57 = LENGTH_MEASURE_WITH_UNIT ( LENGTH_MEASURE( 0.02539999999999999897 ), #39 );
#58 = APPLICATION_PROTOCOL_DEFINITION ( 'international standard', 'config_control_design', 1994, #160 ) ;
#59 = DIRECTION ( 'NONE',  ( 0.7071067811865486830, 1.326139802749642207E-16, 0.7071067811865462405 ) ) ;
#60 = EDGE_CURVE ( 'NONE', #114, #88, #75, .T. ) ;
#61 = APPROVAL_ROLE ( '' ) ;
#62 = AXIS2_PLACEMENT_3D ( 'NONE', #121, #81, #143 ) ;
#63 = DATE_AND_TIME ( #144, #34 ) ;
#64 = SPHERICAL_SURFACE ( 'NONE', #115, 2.000000000000000000 ) ;
#65 = DIRECTION ( 'NONE',  ( -0.7071067811865486830, -2.731847993664262725E-16, 0.7071067811865462405 ) ) ;
#66 = DATE_AND_TIME ( #123, #90 ) ;
#67 = PRODUCT_DEFINITION_SHAPE ( 'NONE', 'NONE',  #102 ) ;
#68 = EDGE_LOOP ( 'NONE', ( #20, #91, #47 ) ) ;
#69 = PRODUCT_DEFINITION_FORMATION_WITH_SPECIFIED_SOURCE ( 'ANY', '', #71, .NOT_KNOWN. ) ;
#70 = FACE_OUTER_BOUND ( 'NONE', #100, .T. ) ;
#71 = PRODUCT ( '450504', '450504', '', ( #37 ) ) ;
#72 = EDGE_CURVE ( 'NONE', #113, #1, #24, .T. ) ;
#73 = ORIENTED_EDGE ( 'NONE', *, *, #77, .F. ) ;
#74 = APPROVAL_ROLE ( '' ) ;
#75 = LINE ( 'NONE', #107, #131 ) ;
#76 = CALENDAR_DATE ( 2024, 21, 1 ) ;
#77 = EDGE_CURVE ( 'NONE', #148, #153, #33, .T. ) ;
#78 = DATE_AND_TIME ( #76, #138 ) ;
#79 =( NAMED_UNIT ( * ) PLANE_ANGLE_UNIT ( ) SI_UNIT ( $, .RADIAN. ) );
#80 = CARTESIAN_POINT ( 'NONE',  ( 0.000000000000000000, -1.414213562373091371, -1.414213562373093369 ) ) ;
#81 = DIRECTION ( 'NONE',  ( -0.7071067811865463515, -2.897562362236303877E-16, 0.7071067811865487940 ) ) ;
#82 = CLOSED_SHELL ( 'NONE', ( #98, #194, #50, #12, #168 ) ) ;
#83 =( NAMED_UNIT ( * ) SI_UNIT ( $, .STERADIAN. ) SOLID_ANGLE_UNIT ( ) );
#84 = PERSON_AND_ORGANIZATION_ROLE ( 'creator' ) ;
#85 = CARTESIAN_POINT ( 'NONE',  ( 1.414213562373097810, -1.414213562373091815, -5.463695987328526437E-16 ) ) ;
#86 = PERSON_AND_ORGANIZATION ( #165, #104 ) ;
#87 = ORIENTED_EDGE ( 'NONE', *, *, #150, .T. ) ;
#88 = VERTEX_POINT ( 'NONE', #166 ) ;
#89 = ORIENTED_EDGE ( 'NONE', *, *, #157, .T. ) ;
#90 = LOCAL_TIME ( 10, 8, 37.00000000000000000, #180 ) ;
#91 = ORIENTED_EDGE ( 'NONE', *, *, #22, .T. ) ;
#92 = DIRECTION ( 'NONE',  ( 0.7071067811865463515, -2.897562362236303877E-16, 0.7071067811865487940 ) ) ;
#93 = CARTESIAN_POINT ( 'NONE',  ( 0.000000000000000000, 0.000000000000000000, 0.000000000000000000 ) ) ;
#94 = DIRECTION ( 'NONE',  ( 0.7071067811865487940, 1.365923996832131609E-16, 0.7071067811865463515 ) ) ;
#95 = DIRECTION ( 'NONE',  ( -0.7071067811865463515, 2.897562362236303877E-16, -0.7071067811865487940 ) ) ;
#96 = AXIS2_PLACEMENT_3D ( 'NONE', #51, #92, #154 ) ;
#97 = PERSON_AND_ORGANIZATION_ROLE ( 'design_supplier' ) ;
#98 = ADVANCED_FACE ( 'NONE', ( #195 ), #64, .F. ) ;
#99 = SECURITY_CLASSIFICATION_LEVEL ( 'unclassified' ) ;
#100 = EDGE_LOOP ( 'NONE', ( #137, #170, #3, #73 ) ) ;
#101 = APPROVAL_PERSON_ORGANIZATION ( #86, #109, #146 ) ;
#102 = PRODUCT_DEFINITION ( 'UNKNOWN', '', #69, #200 ) ;
#103 = ORIENTED_EDGE ( 'NONE', *, *, #124, .F. ) ;
#104 = ORGANIZATION ( 'UNSPECIFIED', 'UNSPECIFIED', '' ) ;
#105 = MANIFOLD_SOLID_BREP ( 'Revolve1', #82 ) ;
#106 = DIRECTION ( 'NONE',  ( 0.000000000000000000, -3.978419408248925883E-16, 1.000000000000000000 ) ) ;
#107 = CARTESIAN_POINT ( 'NONE',  ( -1.414213562373097810, -1.414213562373091815, -5.463695987328526437E-16 ) ) ;
#108 = PLANE ( 'NONE',  #182 ) ;
#109 = APPROVAL ( #29, 'UNSPECIFIED' ) ;
#110 = CC_DESIGN_PERSON_AND_ORGANIZATION_ASSIGNMENT ( #156, #7, ( #71 ) ) ;
#111 = PERSON_AND_ORGANIZATION ( #165, #104 ) ;
#112 = DIRECTION ( 'NONE',  ( -0.7071067811865486830, -4.673100952266434431E-15, -0.7071067811865462405 ) ) ;
#113 = VERTEX_POINT ( 'NONE', #211 ) ;
#114 = VERTEX_POINT ( 'NONE', #128 ) ;
#115 = AXIS2_PLACEMENT_3D ( 'NONE', #191, #15, #65 ) ;
#116 = APPROVAL ( #190, 'UNSPECIFIED' ) ;
#117 = UNCERTAINTY_MEASURE_WITH_UNIT (LENGTH_MEASURE( 1.000000000000000082E-05 ), #158, 'distance_accuracy_value', 'NONE');
#118 = CARTESIAN_POINT ( 'NONE',  ( 1.414213562373097810, -1.414213562373091815, -5.463695987328526437E-16 ) ) ;
#119 = PERSON_AND_ORGANIZATION_ROLE ( 'creator' ) ;
#120 = AXIS2_PLACEMENT_3D ( 'NONE', #93, #175, #28 ) ;
#121 = CARTESIAN_POINT ( 'NONE',  ( 0.000000000000000000, -1.414213562373096256, -1.414213562373093369 ) ) ;
#122 = PERSON_AND_ORGANIZATION ( #165, #104 ) ;
#123 = CALENDAR_DATE ( 2024, 21, 1 ) ;
#124 = EDGE_CURVE ( 'NONE', #1, #148, #129, .T. ) ;
#125 = CALENDAR_DATE ( 2024, 21, 1 ) ;
#126 = APPROVAL_DATE_TIME ( #14, #25 ) ;
#127 = CC_DESIGN_PERSON_AND_ORGANIZATION_ASSIGNMENT ( #40, #192, ( #205 ) ) ;
#128 = CARTESIAN_POINT ( 'NONE',  ( -1.456639969244290844, -1.414213562373091815, 0.04242640687119218768 ) ) ;
#129 = CIRCLE ( 'NONE', #43, 2.000000000000000000 ) ;
#130 = DATE_TIME_ROLE ( 'classification_date' ) ;
#131 = VECTOR ( 'NONE', #172, 39.37007874015748854 ) ;
#132 = PLANE ( 'NONE',  #186 ) ;
#133 = LOCAL_TIME ( 10, 8, 37.00000000000000000, #187 ) ;
#134 = ORIENTED_EDGE ( 'NONE', *, *, #60, .T. ) ;
#135 = CARTESIAN_POINT ( 'NONE',  ( 0.000000000000000000, -1.414213562373091371, -1.414213562373093369 ) ) ;
#136 = EDGE_CURVE ( 'NONE', #88, #148, #173, .T. ) ;
#137 = ORIENTED_EDGE ( 'NONE', *, *, #136, .F. ) ;
#138 = LOCAL_TIME ( 10, 8, 37.00000000000000000, #6 ) ;
#139 = SPHERICAL_SURFACE ( 'NONE', #141, 2.060000000000000053 ) ;
#140 = APPROVAL_DATE_TIME ( #78, #116 ) ;
#141 = AXIS2_PLACEMENT_3D ( 'NONE', #203, #54, #196 ) ;
#142 = DIRECTION ( 'NONE',  ( -0.000000000000000000, 1.000000000000000000, 4.097771990496395814E-16 ) ) ;
#143 = DIRECTION ( 'NONE',  ( 0.7071067811865486830, 1.200209628260102044E-16, 0.7071067811865462405 ) ) ;
#144 = CALENDAR_DATE ( 2024, 21, 1 ) ;
#145 = CC_DESIGN_PERSON_AND_ORGANIZATION_ASSIGNMENT ( #164, #97, ( #69 ) ) ;
#146 = APPROVAL_ROLE ( '' ) ;
#147 = CIRCLE ( 'NONE', #176, 2.000000000000000444 ) ;
#148 = VERTEX_POINT ( 'NONE', #179 ) ;
#149 = DIRECTION ( 'NONE',  ( -2.929757499594489364E-15, 1.000000000000000000, 3.339534698644118493E-15 ) ) ;
#150 = EDGE_CURVE ( 'NONE', #88, #1, #147, .T. ) ;
#151 = ORIENTED_EDGE ( 'NONE', *, *, #4, .F. ) ;
#152 = DIRECTION ( 'NONE',  ( -0.000000000000000000, 1.000000000000000000, 4.097771990496395814E-16 ) ) ;
#153 = VERTEX_POINT ( 'NONE', #208 ) ;
#154 = DIRECTION ( 'NONE',  ( -0.7071067811865486830, 1.326139802749642207E-16, 0.7071067811865462405 ) ) ;
#155 = AXIS2_PLACEMENT_3D ( 'NONE', #30, #159, #59 ) ;
#156 = PERSON_AND_ORGANIZATION ( #165, #104 ) ;
#157 = EDGE_CURVE ( 'NONE', #153, #113, #167, .T. ) ;
#158 =( CONVERSION_BASED_UNIT ( 'INCH', #57 ) LENGTH_UNIT ( ) NAMED_UNIT ( #56 ) );
#159 = DIRECTION ( 'NONE',  ( 0.7071067811865463515, 2.897562362236303384E-16, -0.7071067811865487940 ) ) ;
#160 = APPLICATION_CONTEXT ( 'configuration controlled 3d designs of mechanical parts and assemblies' ) ;
#161 = DIRECTION ( 'NONE',  ( 0.000000000000000000, -1.000000000000000000, -4.097771990496395814E-16 ) ) ;
#162 = DIRECTION ( 'NONE',  ( -0.7071067811865487940, 1.365923996832131609E-16, 0.7071067811865463515 ) ) ;
#163 = CC_DESIGN_DATE_AND_TIME_ASSIGNMENT ( #46, #178, ( #102 ) ) ;
#164 = PERSON_AND_ORGANIZATION ( #165, #104 ) ;
#165 = PERSON ( 'UNSPECIFIED', 'UNSPECIFIED', 'UNSPECIFIED', ('UNSPECIFIED'), ('UNSPECIFIED'), ('UNSPECIFIED') ) ;
#166 = CARTESIAN_POINT ( 'NONE',  ( -1.414213562373097810, -1.414213562373091815, -5.463695987328526437E-16 ) ) ;
#167 = CIRCLE ( 'NONE', #155, 2.060000000000000053 ) ;
#168 = ADVANCED_FACE ( 'NONE', ( #189 ), #206, .F. ) ;
#169 = CARTESIAN_POINT ( 'NONE',  ( 0.000000000000000000, 0.5857864376269035223, -1.414213562373092703 ) ) ;
#170 = ORIENTED_EDGE ( 'NONE', *, *, #60, .F. ) ;
#171 = APPLICATION_CONTEXT ( 'configuration controlled 3d designs of mechanical parts and assemblies' ) ;
#172 = DIRECTION ( 'NONE',  ( 0.7071067811865486830, -4.673100952266434431E-15, -0.7071067811865462405 ) ) ;
#173 = CIRCLE ( 'NONE', #27, 2.000000000000000000 ) ;
#174 = CARTESIAN_POINT ( 'NONE',  ( -1.414213562373097810, -1.414213562373091815, -5.463695987328526437E-16 ) ) ;
#175 = DIRECTION ( 'NONE',  ( 0.000000000000000000, 0.000000000000000000, 1.000000000000000000 ) ) ;
#176 = AXIS2_PLACEMENT_3D ( 'NONE', #80, #142, #188 ) ;
#177 = APPROVAL_PERSON_ORGANIZATION ( #111, #25, #61 ) ;
#178 = DATE_TIME_ROLE ( 'creation_date' ) ;
#179 = CARTESIAN_POINT ( 'NONE',  ( 0.000000000000000000, 0.5857864376269035223, -1.414213562373092703 ) ) ;
#180 = COORDINATED_UNIVERSAL_TIME_OFFSET ( 8, 0, .BEHIND. ) ;
#181 = VECTOR ( 'NONE', #149, 39.37007874015748143 ) ;
#182 = AXIS2_PLACEMENT_3D ( 'NONE', #174, #161, #9 ) ;
#183 = APPROVAL_DATE_TIME ( #66, #109 ) ;
#184 = CC_DESIGN_PERSON_AND_ORGANIZATION_ASSIGNMENT ( #55, #119, ( #102 ) ) ;
#185 = PRODUCT_RELATED_PRODUCT_CATEGORY ( 'detail', '', ( #71 ) ) ;
#186 = AXIS2_PLACEMENT_3D ( 'NONE', #197, #2, #202 ) ;
#187 = COORDINATED_UNIVERSAL_TIME_OFFSET ( 8, 0, .BEHIND. ) ;
#188 = DIRECTION ( 'NONE',  ( 0.000000000000000000, -4.097771990496393842E-16, 1.000000000000000000 ) ) ;
#189 = FACE_OUTER_BOUND ( 'NONE', #48, .T. ) ;
#190 = APPROVAL_STATUS ( 'not_yet_approved' ) ;
#191 = CARTESIAN_POINT ( 'NONE',  ( 0.000000000000000000, -1.414213562373096256, -1.414213562373093369 ) ) ;
#192 = PERSON_AND_ORGANIZATION_ROLE ( 'classification_officer' ) ;
#193 = CIRCLE ( 'NONE', #204, 2.060000000000000497 ) ;
#194 = ADVANCED_FACE ( 'NONE', ( #52 ), #108, .T. ) ;
#195 = FACE_OUTER_BOUND ( 'NONE', #18, .T. ) ;
#196 = DIRECTION ( 'NONE',  ( -0.7071067811865486830, -2.652279605499284908E-16, 0.7071067811865463515 ) ) ;
#197 = CARTESIAN_POINT ( 'NONE',  ( 0.000000000000000000, -1.414213562373096256, -1.414213562373093369 ) ) ;
#198 = DIRECTION ( 'NONE',  ( -0.7071067811865463515, -2.897562362236303384E-16, 0.7071067811865487940 ) ) ;
#199 = EDGE_LOOP ( 'NONE', ( #151, #134, #87, #21 ) ) ;
#200 = DESIGN_CONTEXT ( 'detailed design', #171, 'design' ) ;
#201 = CIRCLE ( 'NONE', #96, 2.060000000000000053 ) ;
#202 = DIRECTION ( 'NONE',  ( -0.7071067811865486830, 1.200209628260102537E-16, 0.7071067811865462405 ) ) ;
#203 = CARTESIAN_POINT ( 'NONE',  ( 0.000000000000000000, -1.414213562373096256, -1.414213562373093369 ) ) ;
#204 = AXIS2_PLACEMENT_3D ( 'NONE', #135, #152, #106 ) ;
#205 = SECURITY_CLASSIFICATION ( '', '', #99 ) ;
#206 = PLANE ( 'NONE',  #62 ) ;
#207 = APPLICATION_PROTOCOL_DEFINITION ( 'international standard', 'config_control_design', 1994, #171 ) ;
#208 = CARTESIAN_POINT ( 'NONE',  ( -2.731847993664263218E-16, 0.6457864376269036866, -1.414213562373092481 ) ) ;
#209 = COORDINATED_UNIVERSAL_TIME_OFFSET ( 8, 0, .BEHIND. ) ;
#210 = PERSON_AND_ORGANIZATION ( #165, #104 ) ;
#211 = CARTESIAN_POINT ( 'NONE',  ( 1.456639969244290844, -1.414213562373091815, 0.04242640687119232645 ) ) ;
#212 = VECTOR ( 'NONE', #112, 39.37007874015748854 ) ;
#213 = CC_DESIGN_APPROVAL ( #109, ( #69 ) ) ;
ENDSEC;
END-ISO-10303-21;
