ISO-10303-21;
HEADER;
FILE_DESCRIPTION (( 'STEP AP203' ),
    '1' );
FILE_NAME ('450505.STEP',
    '2024-01-21T18:02:39',
    ( '' ),
    ( '' ),
    'SwSTEP 2.0',
    'SolidWorks 2021',
    '' );
FILE_SCHEMA (( 'CONFIG_CONTROL_DESIGN' ));
ENDSEC;

DATA;
#1 = CIRCLE ( 'NONE', #107, 2.074999999999999734 ) ;
#2 = ORIENTED_EDGE ( 'NONE', *, *, #200, .T. ) ;
#3 = COORDINATED_UNIVERSAL_TIME_OFFSET ( 8, 0, .BEHIND. ) ;
#4 = AXIS2_PLACEMENT_3D ( 'NONE', #105, #106, #75 ) ;
#5 = ADVANCED_FACE ( 'NONE', ( #146 ), #150, .T. ) ;
#6 = DIRECTION ( 'NONE',  ( 0.7071067811865486830, -1.200209628260102537E-16, -0.7071067811865462405 ) ) ;
#7 = FACE_OUTER_BOUND ( 'NONE', #82, .T. ) ;
#8 = UNCERTAINTY_MEASURE_WITH_UNIT (LENGTH_MEASURE( 1.000000000000000082E-05 ), #174, 'distance_accuracy_value', 'NONE');
#9 = CARTESIAN_POINT ( 'NONE',  ( -1.414213562373097810, -1.414213562373091815, -5.463695987328526437E-16 ) ) ;
#10 = PRODUCT_DEFINITION_SHAPE ( 'NONE', 'NONE',  #53 ) ;
#11 = DIRECTION ( 'NONE',  ( 1.000000000000000000, 0.000000000000000000, 0.000000000000000000 ) ) ;
#12 =( NAMED_UNIT ( * ) SI_UNIT ( $, .STERADIAN. ) SOLID_ANGLE_UNIT ( ) );
#13 = CC_DESIGN_DATE_AND_TIME_ASSIGNMENT ( #213, #69, ( #30 ) ) ;
#14 = CARTESIAN_POINT ( 'NONE',  ( -2.731847993664263218E-16, 0.6607864376269033668, -1.414213562373092481 ) ) ;
#15 = APPROVAL ( #171, 'UNSPECIFIED' ) ;
#16 = SHAPE_DEFINITION_REPRESENTATION ( #10, #49 ) ;
#17 =( GEOMETRIC_REPRESENTATION_CONTEXT ( 3 ) GLOBAL_UNCERTAINTY_ASSIGNED_CONTEXT ( ( #8 ) ) GLOBAL_UNIT_ASSIGNED_CONTEXT ( ( #174, #138, #12 ) ) REPRESENTATION_CONTEXT ( 'NONE', 'WORKASPACE' ) );
#18 = PRODUCT ( '450505', '450505', '', ( #188 ) ) ;
#19 = PERSON_AND_ORGANIZATION ( #165, #123 ) ;
#20 = ORIENTED_EDGE ( 'NONE', *, *, #117, .T. ) ;
#21 = CARTESIAN_POINT ( 'NONE',  ( -1.414213562373097810, -1.414213562373091815, -5.463695987328526437E-16 ) ) ;
#22 = LINE ( 'NONE', #87, #77 ) ;
#23 = DIRECTION ( 'NONE',  ( 0.7071067811865487940, 1.365923996832131609E-16, 0.7071067811865463515 ) ) ;
#24 = PERSON_AND_ORGANIZATION ( #165, #123 ) ;
#25 = DATE_AND_TIME ( #137, #116 ) ;
#26 = CC_DESIGN_APPROVAL ( #120, ( #30 ) ) ;
#27 = AXIS2_PLACEMENT_3D ( 'NONE', #139, #60, #92 ) ;
#28 = ADVANCED_FACE ( 'NONE', ( #110 ), #115, .F. ) ;
#29 = CALENDAR_DATE ( 2024, 21, 1 ) ;
#30 = SECURITY_CLASSIFICATION ( '', '', #122 ) ;
#31 = PERSON_AND_ORGANIZATION_ROLE ( 'design_supplier' ) ;
#32 = ORIENTED_EDGE ( 'NONE', *, *, #42, .T. ) ;
#33 = AXIS2_PLACEMENT_3D ( 'NONE', #205, #162, #148 ) ;
#34 = APPROVAL_ROLE ( '' ) ;
#35 = VERTEX_POINT ( 'NONE', #184 ) ;
#36 = CLOSED_SHELL ( 'NONE', ( #28, #5, #93, #199, #68 ) ) ;
#37 = CARTESIAN_POINT ( 'NONE',  ( 1.414213562373097810, -1.414213562373091815, -5.463695987328526437E-16 ) ) ;
#38 = CARTESIAN_POINT ( 'NONE',  ( 0.000000000000000000, -1.414213562373096256, -1.414213562373093369 ) ) ;
#39 = ORIENTED_EDGE ( 'NONE', *, *, #43, .F. ) ;
#40 = PRODUCT_DEFINITION_FORMATION_WITH_SPECIFIED_SOURCE ( 'ANY', '', #18, .NOT_KNOWN. ) ;
#41 = LINE ( 'NONE', #147, #54 ) ;
#42 = EDGE_CURVE ( 'NONE', #144, #103, #41, .T. ) ;
#43 = EDGE_CURVE ( 'NONE', #103, #97, #88, .T. ) ;
#44 = APPLICATION_PROTOCOL_DEFINITION ( 'international standard', 'config_control_design', 1994, #179 ) ;
#45 = APPROVAL_DATE_TIME ( #25, #15 ) ;
#46 = APPLICATION_CONTEXT ( 'configuration controlled 3d designs of mechanical parts and assemblies' ) ;
#47 = VECTOR ( 'NONE', #164, 39.37007874015748854 ) ;
#48 = COORDINATED_UNIVERSAL_TIME_OFFSET ( 8, 0, .BEHIND. ) ;
#49 = ADVANCED_BREP_SHAPE_REPRESENTATION ( '450505', ( #109, #196 ), #17 ) ;
#50 = DATE_AND_TIME ( #173, #127 ) ;
#51 = DIRECTION ( 'NONE',  ( 0.7071067811865463515, 2.897562362236303384E-16, -0.7071067811865487940 ) ) ;
#52 = LOCAL_TIME ( 10, 2, 39.00000000000000000, #3 ) ;
#53 = PRODUCT_DEFINITION ( 'UNKNOWN', '', #40, #203 ) ;
#54 = VECTOR ( 'NONE', #6, 39.37007874015748854 ) ;
#55 = ORIENTED_EDGE ( 'NONE', *, *, #136, .T. ) ;
#56 = DIRECTION ( 'NONE',  ( -0.7071067811865463515, -2.897562362236303877E-16, 0.7071067811865487940 ) ) ;
#57 = ORIENTED_EDGE ( 'NONE', *, *, #76, .T. ) ;
#58 = CARTESIAN_POINT ( 'NONE',  ( 0.000000000000000000, -1.414213562373096256, -1.414213562373093369 ) ) ;
#59 = SPHERICAL_SURFACE ( 'NONE', #94, 2.074999999999999734 ) ;
#60 = DIRECTION ( 'NONE',  ( -0.000000000000000000, 1.000000000000000000, 4.097771990496395814E-16 ) ) ;
#61 = DIRECTION ( 'NONE',  ( 0.7071067811865463515, -2.897562362236303877E-16, 0.7071067811865487940 ) ) ;
#62 = CARTESIAN_POINT ( 'NONE',  ( 0.000000000000000000, 0.000000000000000000, 0.000000000000000000 ) ) ;
#63 = PERSON_AND_ORGANIZATION ( #165, #123 ) ;
#64 = EDGE_CURVE ( 'NONE', #97, #72, #156, .T. ) ;
#65 = COORDINATED_UNIVERSAL_TIME_OFFSET ( 8, 0, .BEHIND. ) ;
#66 = AXIS2_PLACEMENT_3D ( 'NONE', #133, #56, #111 ) ;
#67 = ORIENTED_EDGE ( 'NONE', *, *, #76, .F. ) ;
#68 = ADVANCED_FACE ( 'NONE', ( #129 ), #74, .F. ) ;
#69 = DATE_TIME_ROLE ( 'classification_date' ) ;
#70 = CARTESIAN_POINT ( 'NONE',  ( 0.000000000000000000, -1.414213562373096256, -1.414213562373093369 ) ) ;
#71 = EDGE_LOOP ( 'NONE', ( #113, #20, #55, #140 ) ) ;
#72 = VERTEX_POINT ( 'NONE', #182 ) ;
#73 = DIRECTION ( 'NONE',  ( 2.897562362236303877E-16, 1.000000000000000000, 1.200209628260103030E-16 ) ) ;
#74 = PLANE ( 'NONE',  #66 ) ;
#75 = DIRECTION ( 'NONE',  ( -0.7071067811865486830, 1.200209628260102537E-16, 0.7071067811865462405 ) ) ;
#76 = EDGE_CURVE ( 'NONE', #103, #72, #168, .T. ) ;
#77 = VECTOR ( 'NONE', #73, 39.37007874015748143 ) ;
#78 = COORDINATED_UNIVERSAL_TIME_OFFSET ( 8, 0, .BEHIND. ) ;
#79 = PERSON_AND_ORGANIZATION ( #165, #123 ) ;
#80 = ORIENTED_EDGE ( 'NONE', *, *, #200, .F. ) ;
#81 = PERSON_AND_ORGANIZATION ( #165, #123 ) ;
#82 = EDGE_LOOP ( 'NONE', ( #177, #163, #2 ) ) ;
#83 = AXIS2_PLACEMENT_3D ( 'NONE', #102, #167, #204 ) ;
#84 = DIRECTION ( 'NONE',  ( 0.000000000000000000, -1.000000000000000000, -4.097771990496395814E-16 ) ) ;
#85 = CC_DESIGN_PERSON_AND_ORGANIZATION_ASSIGNMENT ( #195, #95, ( #30 ) ) ;
#86 = DIRECTION ( 'NONE',  ( -0.7071067811865463515, -2.897562362236303384E-16, 0.7071067811865487940 ) ) ;
#87 = CARTESIAN_POINT ( 'NONE',  ( 0.000000000000000000, 0.5857864376269035223, -1.414213562373092703 ) ) ;
#88 = CIRCLE ( 'NONE', #83, 2.000000000000000444 ) ;
#89 = DIRECTION ( 'NONE',  ( 0.000000000000000000, 4.097771990496395814E-16, -1.000000000000000000 ) ) ;
#90 = CALENDAR_DATE ( 2024, 21, 1 ) ;
#91 = LENGTH_MEASURE_WITH_UNIT ( LENGTH_MEASURE( 0.02539999999999999897 ), #104 );
#92 = DIRECTION ( 'NONE',  ( 0.000000000000000000, -3.949659749876043540E-16, 1.000000000000000000 ) ) ;
#93 = ADVANCED_FACE ( 'NONE', ( #7 ), #59, .T. ) ;
#94 = AXIS2_PLACEMENT_3D ( 'NONE', #70, #183, #130 ) ;
#95 = PERSON_AND_ORGANIZATION_ROLE ( 'classification_officer' ) ;
#96 = CC_DESIGN_PERSON_AND_ORGANIZATION_ASSIGNMENT ( #79, #31, ( #40 ) ) ;
#97 = VERTEX_POINT ( 'NONE', #100 ) ;
#98 = APPROVAL_PERSON_ORGANIZATION ( #208, #15, #118 ) ;
#99 = ORIENTED_EDGE ( 'NONE', *, *, #42, .F. ) ;
#100 = CARTESIAN_POINT ( 'NONE',  ( 1.414213562373097810, -1.414213562373091815, -5.463695987328526437E-16 ) ) ;
#101 = EDGE_CURVE ( 'NONE', #35, #97, #128, .T. ) ;
#102 = CARTESIAN_POINT ( 'NONE',  ( 0.000000000000000000, -1.414213562373091371, -1.414213562373093369 ) ) ;
#103 = VERTEX_POINT ( 'NONE', #21 ) ;
#104 =( LENGTH_UNIT ( ) NAMED_UNIT ( * ) SI_UNIT ( $, .METRE. ) );
#105 = CARTESIAN_POINT ( 'NONE',  ( 0.000000000000000000, -1.414213562373096256, -1.414213562373093369 ) ) ;
#106 = DIRECTION ( 'NONE',  ( -0.7071067811865463515, 2.897562362236303877E-16, -0.7071067811865487940 ) ) ;
#107 = AXIS2_PLACEMENT_3D ( 'NONE', #209, #51, #207 ) ;
#108 = PRODUCT_RELATED_PRODUCT_CATEGORY ( 'detail', '', ( #18 ) ) ;
#109 = MANIFOLD_SOLID_BREP ( 'Revolve1', #36 ) ;
#110 = FACE_OUTER_BOUND ( 'NONE', #180, .T. ) ;
#111 = DIRECTION ( 'NONE',  ( 0.7071067811865486830, 1.200209628260102044E-16, 0.7071067811865462405 ) ) ;
#112 = CIRCLE ( 'NONE', #27, 2.074999999999999734 ) ;
#113 = ORIENTED_EDGE ( 'NONE', *, *, #64, .T. ) ;
#114 = ORIENTED_EDGE ( 'NONE', *, *, #43, .T. ) ;
#115 = SPHERICAL_SURFACE ( 'NONE', #33, 2.000000000000000000 ) ;
#116 = LOCAL_TIME ( 10, 2, 39.00000000000000000, #78 ) ;
#117 = EDGE_CURVE ( 'NONE', #72, #126, #22, .T. ) ;
#118 = APPROVAL_ROLE ( '' ) ;
#119 = DIRECTION ( 'NONE',  ( 0.000000000000000000, 0.000000000000000000, 1.000000000000000000 ) ) ;
#120 = APPROVAL ( #145, 'UNSPECIFIED' ) ;
#121 = APPROVAL_STATUS ( 'not_yet_approved' ) ;
#122 = SECURITY_CLASSIFICATION_LEVEL ( 'unclassified' ) ;
#123 = ORGANIZATION ( 'UNSPECIFIED', 'UNSPECIFIED', '' ) ;
#124 = EDGE_CURVE ( 'NONE', #126, #144, #202, .T. ) ;
#125 = CALENDAR_DATE ( 2024, 21, 1 ) ;
#126 = VERTEX_POINT ( 'NONE', #14 ) ;
#127 = LOCAL_TIME ( 10, 2, 39.00000000000000000, #48 ) ;
#128 = LINE ( 'NONE', #37, #47 ) ;
#129 = FACE_OUTER_BOUND ( 'NONE', #71, .T. ) ;
#130 = DIRECTION ( 'NONE',  ( -0.7071067811865487940, -2.633106499917362524E-16, 0.7071067811865463515 ) ) ;
#131 = CC_DESIGN_APPROVAL ( #169, ( #40 ) ) ;
#132 = CARTESIAN_POINT ( 'NONE',  ( 0.000000000000000000, -1.414213562373096256, -1.414213562373093369 ) ) ;
#133 = CARTESIAN_POINT ( 'NONE',  ( 0.000000000000000000, -1.414213562373096256, -1.414213562373093369 ) ) ;
#134 = CC_DESIGN_APPROVAL ( #15, ( #53 ) ) ;
#135 = CC_DESIGN_PERSON_AND_ORGANIZATION_ASSIGNMENT ( #19, #193, ( #40 ) ) ;
#136 = EDGE_CURVE ( 'NONE', #126, #35, #1, .T. ) ;
#137 = CALENDAR_DATE ( 2024, 21, 1 ) ;
#138 =( NAMED_UNIT ( * ) PLANE_ANGLE_UNIT ( ) SI_UNIT ( $, .RADIAN. ) );
#139 = CARTESIAN_POINT ( 'NONE',  ( 0.000000000000000000, -1.414213562373091371, -1.414213562373093369 ) ) ;
#140 = ORIENTED_EDGE ( 'NONE', *, *, #101, .T. ) ;
#141 = APPROVAL_DATE_TIME ( #192, #169 ) ;
#142 = CC_DESIGN_SECURITY_CLASSIFICATION ( #30, ( #40 ) ) ;
#143 = LOCAL_TIME ( 10, 2, 39.00000000000000000, #65 ) ;
#144 = VERTEX_POINT ( 'NONE', #155 ) ;
#145 = APPROVAL_STATUS ( 'not_yet_approved' ) ;
#146 = FACE_OUTER_BOUND ( 'NONE', #149, .T. ) ;
#147 = CARTESIAN_POINT ( 'NONE',  ( -1.414213562373097810, -1.414213562373091815, -5.463695987328526437E-16 ) ) ;
#148 = DIRECTION ( 'NONE',  ( -0.7071067811865486830, -2.731847993664262725E-16, 0.7071067811865462405 ) ) ;
#149 = EDGE_LOOP ( 'NONE', ( #80, #32, #114, #201 ) ) ;
#150 = PLANE ( 'NONE',  #152 ) ;
#151 = PERSON_AND_ORGANIZATION ( #165, #123 ) ;
#152 = AXIS2_PLACEMENT_3D ( 'NONE', #9, #84, #89 ) ;
#153 = DIRECTION ( 'NONE',  ( -0.7071067811865487940, 1.316553249958681262E-16, 0.7071067811865462405 ) ) ;
#154 = DATE_TIME_ROLE ( 'creation_date' ) ;
#155 = CARTESIAN_POINT ( 'NONE',  ( -1.467246570962088548, -1.414213562373091815, 0.05303300858898982173 ) ) ;
#156 = CIRCLE ( 'NONE', #210, 2.000000000000000000 ) ;
#157 = CC_DESIGN_PERSON_AND_ORGANIZATION_ASSIGNMENT ( #151, #211, ( #53 ) ) ;
#158 = DATE_AND_TIME ( #29, #143 ) ;
#159 = AXIS2_PLACEMENT_3D ( 'NONE', #38, #185, #206 ) ;
#160 = CC_DESIGN_DATE_AND_TIME_ASSIGNMENT ( #50, #154, ( #53 ) ) ;
#161 = APPROVAL_PERSON_ORGANIZATION ( #81, #120, #34 ) ;
#162 = DIRECTION ( 'NONE',  ( 0.7071067811865462405, -2.897562362236303877E-16, 0.7071067811865487940 ) ) ;
#163 = ORIENTED_EDGE ( 'NONE', *, *, #124, .T. ) ;
#164 = DIRECTION ( 'NONE',  ( -0.7071067811865486830, -1.200209628260102044E-16, -0.7071067811865462405 ) ) ;
#165 = PERSON ( 'UNSPECIFIED', 'UNSPECIFIED', 'UNSPECIFIED', ('UNSPECIFIED'), ('UNSPECIFIED'), ('UNSPECIFIED') ) ;
#166 = AXIS2_PLACEMENT_3D ( 'NONE', #132, #61, #153 ) ;
#167 = DIRECTION ( 'NONE',  ( -0.000000000000000000, 1.000000000000000000, 4.097771990496395814E-16 ) ) ;
#168 = CIRCLE ( 'NONE', #159, 2.000000000000000000 ) ;
#169 = APPROVAL ( #121, 'UNSPECIFIED' ) ;
#170 = COORDINATED_UNIVERSAL_TIME_OFFSET ( 8, 0, .BEHIND. ) ;
#171 = APPROVAL_STATUS ( 'not_yet_approved' ) ;
#172 = APPLICATION_PROTOCOL_DEFINITION ( 'international standard', 'config_control_design', 1994, #46 ) ;
#173 = CALENDAR_DATE ( 2024, 21, 1 ) ;
#174 =( CONVERSION_BASED_UNIT ( 'INCH', #91 ) LENGTH_UNIT ( ) NAMED_UNIT ( #197 ) );
#175 = CC_DESIGN_PERSON_AND_ORGANIZATION_ASSIGNMENT ( #24, #186, ( #18 ) ) ;
#176 = APPROVAL_DATE_TIME ( #158, #120 ) ;
#177 = ORIENTED_EDGE ( 'NONE', *, *, #136, .F. ) ;
#178 = ORIENTED_EDGE ( 'NONE', *, *, #124, .F. ) ;
#179 = APPLICATION_CONTEXT ( 'configuration controlled 3d designs of mechanical parts and assemblies' ) ;
#180 = EDGE_LOOP ( 'NONE', ( #39, #57, #212 ) ) ;
#181 = LOCAL_TIME ( 10, 2, 39.00000000000000000, #170 ) ;
#182 = CARTESIAN_POINT ( 'NONE',  ( 0.000000000000000000, 0.5857864376269035223, -1.414213562373092703 ) ) ;
#183 = DIRECTION ( 'NONE',  ( 0.7071067811865463515, -2.897562362236303384E-16, 0.7071067811865487940 ) ) ;
#184 = CARTESIAN_POINT ( 'NONE',  ( 1.467246570962088548, -1.414213562373091815, 0.05303300858898996051 ) ) ;
#185 = DIRECTION ( 'NONE',  ( -0.7071067811865463515, 2.897562362236303877E-16, -0.7071067811865487940 ) ) ;
#186 = PERSON_AND_ORGANIZATION_ROLE ( 'design_owner' ) ;
#187 = PLANE ( 'NONE',  #4 ) ;
#188 = MECHANICAL_CONTEXT ( 'NONE', #46, 'mechanical' ) ;
#189 = APPROVAL_PERSON_ORGANIZATION ( #63, #169, #191 ) ;
#190 = FACE_OUTER_BOUND ( 'NONE', #198, .T. ) ;
#191 = APPROVAL_ROLE ( '' ) ;
#192 = DATE_AND_TIME ( #90, #181 ) ;
#193 = PERSON_AND_ORGANIZATION_ROLE ( 'creator' ) ;
#194 = ORIENTED_EDGE ( 'NONE', *, *, #117, .F. ) ;
#195 = PERSON_AND_ORGANIZATION ( #165, #123 ) ;
#196 = AXIS2_PLACEMENT_3D ( 'NONE', #62, #119, #11 ) ;
#197 = DIMENSIONAL_EXPONENTS ( 1.000000000000000000, 0.000000000000000000, 0.000000000000000000, 0.000000000000000000, 0.000000000000000000, 0.000000000000000000, 0.000000000000000000 ) ;
#198 = EDGE_LOOP ( 'NONE', ( #67, #99, #178, #194 ) ) ;
#199 = ADVANCED_FACE ( 'NONE', ( #190 ), #187, .T. ) ;
#200 = EDGE_CURVE ( 'NONE', #144, #35, #112, .T. ) ;
#201 = ORIENTED_EDGE ( 'NONE', *, *, #101, .F. ) ;
#202 = CIRCLE ( 'NONE', #166, 2.074999999999999734 ) ;
#203 = DESIGN_CONTEXT ( 'detailed design', #179, 'design' ) ;
#204 = DIRECTION ( 'NONE',  ( 0.000000000000000000, -4.097771990496393842E-16, 1.000000000000000000 ) ) ;
#205 = CARTESIAN_POINT ( 'NONE',  ( 0.000000000000000000, -1.414213562373096256, -1.414213562373093369 ) ) ;
#206 = DIRECTION ( 'NONE',  ( -0.7071067811865487940, 1.365923996832131609E-16, 0.7071067811865463515 ) ) ;
#207 = DIRECTION ( 'NONE',  ( 0.7071067811865487940, 1.316553249958681262E-16, 0.7071067811865462405 ) ) ;
#208 = PERSON_AND_ORGANIZATION ( #165, #123 ) ;
#209 = CARTESIAN_POINT ( 'NONE',  ( 0.000000000000000000, -1.414213562373096256, -1.414213562373093369 ) ) ;
#210 = AXIS2_PLACEMENT_3D ( 'NONE', #58, #86, #23 ) ;
#211 = PERSON_AND_ORGANIZATION_ROLE ( 'creator' ) ;
#212 = ORIENTED_EDGE ( 'NONE', *, *, #64, .F. ) ;
#213 = DATE_AND_TIME ( #125, #52 ) ;
ENDSEC;
END-ISO-10303-21;
