ISO-10303-21;
HEADER;
FILE_DESCRIPTION (( 'STEP AP203' ),
    '1' );
FILE_NAME ('450506.STEP',
    '2024-01-21T18:11:47',
    ( '' ),
    ( '' ),
    'SwSTEP 2.0',
    'SolidWorks 2021',
    '' );
FILE_SCHEMA (( 'CONFIG_CONTROL_DESIGN' ));
ENDSEC;

DATA;
#1 = PERSON ( 'UNSPECIFIED', 'UNSPECIFIED', 'UNSPECIFIED', ('UNSPECIFIED'), ('UNSPECIFIED'), ('UNSPECIFIED') ) ;
#2 = CARTESIAN_POINT ( 'NONE',  ( 0.000000000000000000, 0.000000000000000000, 0.000000000000000000 ) ) ;
#3 = DIRECTION ( 'NONE',  ( 0.7071067811865487940, 1.365923996832131609E-16, 0.7071067811865463515 ) ) ;
#4 = COORDINATED_UNIVERSAL_TIME_OFFSET ( 8, 0, .BEHIND. ) ;
#5 = ADVANCED_BREP_SHAPE_REPRESENTATION ( '450506', ( #27, #25 ), #161 ) ;
#6 = DATE_TIME_ROLE ( 'creation_date' ) ;
#7 = FACE_OUTER_BOUND ( 'NONE', #135, .T. ) ;
#8 = DIRECTION ( 'NONE',  ( 0.000000000000000000, 4.097771990496395814E-16, -1.000000000000000000 ) ) ;
#9 =( NAMED_UNIT ( * ) PLANE_ANGLE_UNIT ( ) SI_UNIT ( $, .RADIAN. ) );
#10 = LOCAL_TIME ( 10, 11, 47.00000000000000000, #38 ) ;
#11 = ORIENTED_EDGE ( 'NONE', *, *, #137, .T. ) ;
#12 = CIRCLE ( 'NONE', #51, 2.089999999999999858 ) ;
#13 = EDGE_LOOP ( 'NONE', ( #136, #11, #14, #69 ) ) ;
#14 = ORIENTED_EDGE ( 'NONE', *, *, #166, .T. ) ;
#15 = CC_DESIGN_DATE_AND_TIME_ASSIGNMENT ( #43, #150, ( #32 ) ) ;
#16 = CALENDAR_DATE ( 2024, 21, 1 ) ;
#17 = APPLICATION_PROTOCOL_DEFINITION ( 'international standard', 'config_control_design', 1994, #152 ) ;
#18 = CC_DESIGN_APPROVAL ( #100, ( #32 ) ) ;
#19 = DATE_AND_TIME ( #16, #35 ) ;
#20 = SPHERICAL_SURFACE ( 'NONE', #99, 2.089999999999999858 ) ;
#21 = DIRECTION ( 'NONE',  ( 1.000000000000000000, 0.000000000000000000, 0.000000000000000000 ) ) ;
#22 = APPLICATION_CONTEXT ( 'configuration controlled 3d designs of mechanical parts and assemblies' ) ;
#23 = MECHANICAL_CONTEXT ( 'NONE', #22, 'mechanical' ) ;
#24 = DIRECTION ( 'NONE',  ( -0.7071067811865486830, -2.614208606377285259E-16, 0.7071067811865462405 ) ) ;
#25 = AXIS2_PLACEMENT_3D ( 'NONE', #2, #181, #21 ) ;
#26 = DIMENSIONAL_EXPONENTS ( 1.000000000000000000, 0.000000000000000000, 0.000000000000000000, 0.000000000000000000, 0.000000000000000000, 0.000000000000000000, 0.000000000000000000 ) ;
#27 = MANIFOLD_SOLID_BREP ( 'Revolve1', #85 ) ;
#28 = ADVANCED_FACE ( 'NONE', ( #120 ), #20, .T. ) ;
#29 = DIRECTION ( 'NONE',  ( 0.7071067811865463515, 2.897562362236303384E-16, -0.7071067811865487940 ) ) ;
#30 = PERSON_AND_ORGANIZATION ( #1, #172 ) ;
#31 = AXIS2_PLACEMENT_3D ( 'NONE', #94, #62, #144 ) ;
#32 = SECURITY_CLASSIFICATION ( '', '', #200 ) ;
#33 = APPROVAL_STATUS ( 'not_yet_approved' ) ;
#34 = EDGE_CURVE ( 'NONE', #36, #209, #204, .T. ) ;
#35 = LOCAL_TIME ( 10, 11, 47.00000000000000000, #115 ) ;
#36 = VERTEX_POINT ( 'NONE', #168 ) ;
#37 = ORIENTED_EDGE ( 'NONE', *, *, #137, .F. ) ;
#38 = COORDINATED_UNIVERSAL_TIME_OFFSET ( 8, 0, .BEHIND. ) ;
#39 = ADVANCED_FACE ( 'NONE', ( #61 ), #97, .T. ) ;
#40 = PERSON_AND_ORGANIZATION ( #1, #172 ) ;
#41 = CC_DESIGN_PERSON_AND_ORGANIZATION_ASSIGNMENT ( #145, #178, ( #154 ) ) ;
#42 = CARTESIAN_POINT ( 'NONE',  ( -2.731847993664263218E-16, 0.6757864376269036022, -1.414213562373092481 ) ) ;
#43 = DATE_AND_TIME ( #164, #175 ) ;
#44 = DIRECTION ( 'NONE',  ( -0.7071067811865486830, 1.200209628260102537E-16, 0.7071067811865462405 ) ) ;
#45 =( CONVERSION_BASED_UNIT ( 'INCH', #47 ) LENGTH_UNIT ( ) NAMED_UNIT ( #26 ) );
#46 = DIRECTION ( 'NONE',  ( -0.7071067811865486830, -6.190794282079936480E-15, -0.7071067811865462405 ) ) ;
#47 = LENGTH_MEASURE_WITH_UNIT ( LENGTH_MEASURE( 0.02539999999999999897 ), #187 );
#48 = VERTEX_POINT ( 'NONE', #119 ) ;
#49 = CIRCLE ( 'NONE', #92, 2.090000000000000302 ) ;
#50 = ORIENTED_EDGE ( 'NONE', *, *, #34, .F. ) ;
#51 = AXIS2_PLACEMENT_3D ( 'NONE', #207, #81, #149 ) ;
#52 = APPROVAL ( #103, 'UNSPECIFIED' ) ;
#53 = PERSON_AND_ORGANIZATION ( #1, #172 ) ;
#54 = PERSON_AND_ORGANIZATION ( #1, #172 ) ;
#55 = PERSON_AND_ORGANIZATION_ROLE ( 'design_supplier' ) ;
#56 = EDGE_CURVE ( 'NONE', #87, #36, #212, .T. ) ;
#57 = AXIS2_PLACEMENT_3D ( 'NONE', #111, #205, #130 ) ;
#58 = CARTESIAN_POINT ( 'NONE',  ( 0.000000000000000000, -1.414213562373096256, -1.414213562373093369 ) ) ;
#59 = DIRECTION ( 'NONE',  ( 0.000000000000000000, -1.000000000000000000, -4.097771990496395814E-16 ) ) ;
#60 = PERSON_AND_ORGANIZATION ( #1, #172 ) ;
#61 = FACE_OUTER_BOUND ( 'NONE', #190, .T. ) ;
#62 = DIRECTION ( 'NONE',  ( -0.7071067811865463515, 2.897562362236303877E-16, -0.7071067811865487940 ) ) ;
#63 = CARTESIAN_POINT ( 'NONE',  ( 0.000000000000000000, -1.414213562373096256, -1.414213562373093369 ) ) ;
#64 = CARTESIAN_POINT ( 'NONE',  ( -1.414213562373097810, -1.414213562373091593, -5.463695987328525451E-16 ) ) ;
#65 = PRODUCT_DEFINITION ( 'UNKNOWN', '', #154, #102 ) ;
#66 = LINE ( 'NONE', #131, #139 ) ;
#67 = CARTESIAN_POINT ( 'NONE',  ( 0.000000000000000000, 0.5857864376269035223, -1.414213562373092703 ) ) ;
#68 = CALENDAR_DATE ( 2024, 21, 1 ) ;
#69 = ORIENTED_EDGE ( 'NONE', *, *, #79, .T. ) ;
#70 = ORIENTED_EDGE ( 'NONE', *, *, #166, .F. ) ;
#71 = EDGE_LOOP ( 'NONE', ( #70, #151, #113 ) ) ;
#72 =( NAMED_UNIT ( * ) SI_UNIT ( $, .STERADIAN. ) SOLID_ANGLE_UNIT ( ) );
#73 = PRODUCT_DEFINITION_SHAPE ( 'NONE', 'NONE',  #65 ) ;
#74 = ADVANCED_FACE ( 'NONE', ( #108 ), #77, .F. ) ;
#75 = APPROVAL_DATE_TIME ( #19, #213 ) ;
#76 = LINE ( 'NONE', #67, #192 ) ;
#77 = PLANE ( 'NONE',  #127 ) ;
#78 = DIRECTION ( 'NONE',  ( -0.7071067811865463515, -2.897562362236303877E-16, 0.7071067811865487940 ) ) ;
#79 = EDGE_CURVE ( 'NONE', #82, #36, #147, .T. ) ;
#80 = APPROVAL_ROLE ( '' ) ;
#81 = DIRECTION ( 'NONE',  ( 0.7071067811865463515, -2.897562362236303877E-16, 0.7071067811865487940 ) ) ;
#82 = VERTEX_POINT ( 'NONE', #110 ) ;
#83 = CC_DESIGN_DATE_AND_TIME_ASSIGNMENT ( #182, #6, ( #65 ) ) ;
#84 = APPROVAL_DATE_TIME ( #163, #100 ) ;
#85 = CLOSED_SHELL ( 'NONE', ( #155, #210, #28, #39, #74 ) ) ;
#86 = ORIENTED_EDGE ( 'NONE', *, *, #140, .F. ) ;
#87 = VERTEX_POINT ( 'NONE', #170 ) ;
#88 = ORIENTED_EDGE ( 'NONE', *, *, #56, .T. ) ;
#89 = UNCERTAINTY_MEASURE_WITH_UNIT (LENGTH_MEASURE( 1.000000000000000082E-05 ), #45, 'distance_accuracy_value', 'NONE');
#90 = AXIS2_PLACEMENT_3D ( 'NONE', #124, #29, #185 ) ;
#91 = EDGE_CURVE ( 'NONE', #133, #48, #12, .T. ) ;
#92 = AXIS2_PLACEMENT_3D ( 'NONE', #169, #199, #158 ) ;
#93 = PERSON_AND_ORGANIZATION_ROLE ( 'design_owner' ) ;
#94 = CARTESIAN_POINT ( 'NONE',  ( 0.000000000000000000, -1.414213562373096256, -1.414213562373093369 ) ) ;
#95 = PERSON_AND_ORGANIZATION_ROLE ( 'creator' ) ;
#96 = APPROVAL_PERSON_ORGANIZATION ( #30, #100, #80 ) ;
#97 = PLANE ( 'NONE',  #198 ) ;
#98 = FACE_OUTER_BOUND ( 'NONE', #134, .T. ) ;
#99 = AXIS2_PLACEMENT_3D ( 'NONE', #58, #142, #24 ) ;
#100 = APPROVAL ( #33, 'UNSPECIFIED' ) ;
#101 = ORIENTED_EDGE ( 'NONE', *, *, #79, .F. ) ;
#102 = DESIGN_CONTEXT ( 'detailed design', #152, 'design' ) ;
#103 = APPROVAL_STATUS ( 'not_yet_approved' ) ;
#104 = CALENDAR_DATE ( 2024, 21, 1 ) ;
#105 = CALENDAR_DATE ( 2024, 21, 1 ) ;
#106 = APPROVAL_ROLE ( '' ) ;
#107 = DIRECTION ( 'NONE',  ( -0.7071067811865463515, 2.897562362236303877E-16, -0.7071067811865487940 ) ) ;
#108 = FACE_OUTER_BOUND ( 'NONE', #13, .T. ) ;
#109 = VECTOR ( 'NONE', #46, 39.37007874015748854 ) ;
#110 = CARTESIAN_POINT ( 'NONE',  ( 1.477853172679886917, -1.414213562373091371, 0.06363961030678848274 ) ) ;
#111 = CARTESIAN_POINT ( 'NONE',  ( 0.000000000000000000, -1.414213562373096256, -1.414213562373093369 ) ) ;
#112 = ORIENTED_EDGE ( 'NONE', *, *, #140, .T. ) ;
#113 = ORIENTED_EDGE ( 'NONE', *, *, #177, .T. ) ;
#114 = CC_DESIGN_PERSON_AND_ORGANIZATION_ASSIGNMENT ( #60, #118, ( #32 ) ) ;
#115 = COORDINATED_UNIVERSAL_TIME_OFFSET ( 8, 0, .BEHIND. ) ;
#116 = CIRCLE ( 'NONE', #31, 2.000000000000000000 ) ;
#117 = APPROVAL_PERSON_ORGANIZATION ( #53, #213, #167 ) ;
#118 = PERSON_AND_ORGANIZATION_ROLE ( 'classification_officer' ) ;
#119 = CARTESIAN_POINT ( 'NONE',  ( -1.477853172679887139, -1.414213562373091371, 0.06363961030678827457 ) ) ;
#120 = FACE_OUTER_BOUND ( 'NONE', #71, .T. ) ;
#121 = COORDINATED_UNIVERSAL_TIME_OFFSET ( 8, 0, .BEHIND. ) ;
#122 = CARTESIAN_POINT ( 'NONE',  ( 0.000000000000000000, -1.414213562373096256, -1.414213562373093369 ) ) ;
#123 = EDGE_CURVE ( 'NONE', #48, #87, #66, .T. ) ;
#124 = CARTESIAN_POINT ( 'NONE',  ( 0.000000000000000000, -1.414213562373096256, -1.414213562373093369 ) ) ;
#125 = SHAPE_DEFINITION_REPRESENTATION ( #73, #5 ) ;
#126 = SPHERICAL_SURFACE ( 'NONE', #57, 2.000000000000000000 ) ;
#127 = AXIS2_PLACEMENT_3D ( 'NONE', #129, #78, #201 ) ;
#128 = CC_DESIGN_APPROVAL ( #213, ( #154 ) ) ;
#129 = CARTESIAN_POINT ( 'NONE',  ( 0.000000000000000000, -1.414213562373096256, -1.414213562373093369 ) ) ;
#130 = DIRECTION ( 'NONE',  ( -0.7071067811865486830, -2.731847993664262725E-16, 0.7071067811865462405 ) ) ;
#131 = CARTESIAN_POINT ( 'NONE',  ( -1.414213562373097810, -1.414213562373091815, -5.463695987328526437E-16 ) ) ;
#132 = CARTESIAN_POINT ( 'NONE',  ( 0.000000000000000000, 0.5857864376269035223, -1.414213562373092703 ) ) ;
#133 = VERTEX_POINT ( 'NONE', #42 ) ;
#134 = EDGE_LOOP ( 'NONE', ( #211, #112, #50 ) ) ;
#135 = EDGE_LOOP ( 'NONE', ( #191, #184, #88, #101 ) ) ;
#136 = ORIENTED_EDGE ( 'NONE', *, *, #34, .T. ) ;
#137 = EDGE_CURVE ( 'NONE', #209, #133, #76, .T. ) ;
#138 = PRODUCT ( '450506', '450506', '', ( #23 ) ) ;
#139 = VECTOR ( 'NONE', #189, 39.37007874015748854 ) ;
#140 = EDGE_CURVE ( 'NONE', #87, #209, #116, .T. ) ;
#141 = APPLICATION_PROTOCOL_DEFINITION ( 'international standard', 'config_control_design', 1994, #22 ) ;
#142 = DIRECTION ( 'NONE',  ( 0.7071067811865463515, -2.897562362236303877E-16, 0.7071067811865487940 ) ) ;
#143 = PERSON_AND_ORGANIZATION ( #1, #172 ) ;
#144 = DIRECTION ( 'NONE',  ( -0.7071067811865487940, 1.365923996832131609E-16, 0.7071067811865463515 ) ) ;
#145 = PERSON_AND_ORGANIZATION ( #1, #172 ) ;
#146 = COORDINATED_UNIVERSAL_TIME_OFFSET ( 8, 0, .BEHIND. ) ;
#147 = LINE ( 'NONE', #203, #109 ) ;
#148 = AXIS2_PLACEMENT_3D ( 'NONE', #63, #160, #3 ) ;
#149 = DIRECTION ( 'NONE',  ( -0.7071067811865487940, 1.307104303188642876E-16, 0.7071067811865463515 ) ) ;
#150 = DATE_TIME_ROLE ( 'classification_date' ) ;
#151 = ORIENTED_EDGE ( 'NONE', *, *, #91, .T. ) ;
#152 = APPLICATION_CONTEXT ( 'configuration controlled 3d designs of mechanical parts and assemblies' ) ;
#153 = DATE_AND_TIME ( #104, #188 ) ;
#154 = PRODUCT_DEFINITION_FORMATION_WITH_SPECIFIED_SOURCE ( 'ANY', '', #138, .NOT_KNOWN. ) ;
#155 = ADVANCED_FACE ( 'NONE', ( #98 ), #126, .F. ) ;
#156 = CC_DESIGN_SECURITY_CLASSIFICATION ( #32, ( #154 ) ) ;
#157 = CARTESIAN_POINT ( 'NONE',  ( 0.000000000000000000, -1.414213562373091371, -1.414213562373093369 ) ) ;
#158 = DIRECTION ( 'NONE',  ( 0.000000000000000000, -3.921312909565927395E-16, 1.000000000000000000 ) ) ;
#159 = DIRECTION ( 'NONE',  ( -1.856586254321782698E-15, 1.000000000000000000, 2.266363453371415771E-15 ) ) ;
#160 = DIRECTION ( 'NONE',  ( -0.7071067811865463515, -2.897562362236303384E-16, 0.7071067811865487940 ) ) ;
#161 =( GEOMETRIC_REPRESENTATION_CONTEXT ( 3 ) GLOBAL_UNCERTAINTY_ASSIGNED_CONTEXT ( ( #89 ) ) GLOBAL_UNIT_ASSIGNED_CONTEXT ( ( #45, #9, #72 ) ) REPRESENTATION_CONTEXT ( 'NONE', 'WORKASPACE' ) );
#162 = CC_DESIGN_PERSON_AND_ORGANIZATION_ASSIGNMENT ( #197, #55, ( #154 ) ) ;
#163 = DATE_AND_TIME ( #68, #206 ) ;
#164 = CALENDAR_DATE ( 2024, 21, 1 ) ;
#165 = APPROVAL_STATUS ( 'not_yet_approved' ) ;
#166 = EDGE_CURVE ( 'NONE', #133, #82, #171, .T. ) ;
#167 = APPROVAL_ROLE ( '' ) ;
#168 = CARTESIAN_POINT ( 'NONE',  ( 1.414213562373097810, -1.414213562373091815, -5.463695987328526437E-16 ) ) ;
#169 = CARTESIAN_POINT ( 'NONE',  ( 0.000000000000000000, -1.414213562373090705, -1.414213562373093369 ) ) ;
#170 = CARTESIAN_POINT ( 'NONE',  ( -1.414213562373097810, -1.414213562373091815, -5.463695987328526437E-16 ) ) ;
#171 = CIRCLE ( 'NONE', #90, 2.089999999999999858 ) ;
#172 = ORGANIZATION ( 'UNSPECIFIED', 'UNSPECIFIED', '' ) ;
#173 = PRODUCT_RELATED_PRODUCT_CATEGORY ( 'detail', '', ( #138 ) ) ;
#174 = ORIENTED_EDGE ( 'NONE', *, *, #91, .F. ) ;
#175 = LOCAL_TIME ( 10, 11, 47.00000000000000000, #121 ) ;
#176 = CC_DESIGN_APPROVAL ( #52, ( #65 ) ) ;
#177 = EDGE_CURVE ( 'NONE', #48, #82, #49, .T. ) ;
#178 = PERSON_AND_ORGANIZATION_ROLE ( 'creator' ) ;
#179 = APPROVAL_DATE_TIME ( #153, #52 ) ;
#180 = AXIS2_PLACEMENT_3D ( 'NONE', #64, #59, #8 ) ;
#181 = DIRECTION ( 'NONE',  ( 0.000000000000000000, 0.000000000000000000, 1.000000000000000000 ) ) ;
#182 = DATE_AND_TIME ( #105, #10 ) ;
#183 = DIRECTION ( 'NONE',  ( 0.000000000000000000, -4.097771990496393842E-16, 1.000000000000000000 ) ) ;
#184 = ORIENTED_EDGE ( 'NONE', *, *, #123, .T. ) ;
#185 = DIRECTION ( 'NONE',  ( 0.7071067811865487940, 1.307104303188642876E-16, 0.7071067811865463515 ) ) ;
#186 = CC_DESIGN_PERSON_AND_ORGANIZATION_ASSIGNMENT ( #54, #93, ( #138 ) ) ;
#187 =( LENGTH_UNIT ( ) NAMED_UNIT ( * ) SI_UNIT ( $, .METRE. ) );
#188 = LOCAL_TIME ( 10, 11, 47.00000000000000000, #4 ) ;
#189 = DIRECTION ( 'NONE',  ( 0.7071067811865486830, -6.190794282079936480E-15, -0.7071067811865462405 ) ) ;
#190 = EDGE_LOOP ( 'NONE', ( #86, #194, #174, #37 ) ) ;
#191 = ORIENTED_EDGE ( 'NONE', *, *, #177, .F. ) ;
#192 = VECTOR ( 'NONE', #159, 39.37007874015748143 ) ;
#193 = APPROVAL_PERSON_ORGANIZATION ( #143, #52, #106 ) ;
#194 = ORIENTED_EDGE ( 'NONE', *, *, #123, .F. ) ;
#195 = AXIS2_PLACEMENT_3D ( 'NONE', #157, #196, #183 ) ;
#196 = DIRECTION ( 'NONE',  ( -0.000000000000000000, 1.000000000000000000, 4.097771990496395814E-16 ) ) ;
#197 = PERSON_AND_ORGANIZATION ( #1, #172 ) ;
#198 = AXIS2_PLACEMENT_3D ( 'NONE', #122, #107, #44 ) ;
#199 = DIRECTION ( 'NONE',  ( -0.000000000000000000, 1.000000000000000000, 4.097771990496395814E-16 ) ) ;
#200 = SECURITY_CLASSIFICATION_LEVEL ( 'unclassified' ) ;
#201 = DIRECTION ( 'NONE',  ( 0.7071067811865486830, 1.200209628260102044E-16, 0.7071067811865462405 ) ) ;
#202 = PLANE ( 'NONE',  #180 ) ;
#203 = CARTESIAN_POINT ( 'NONE',  ( 1.414213562373097810, -1.414213562373091815, -5.463695987328526437E-16 ) ) ;
#204 = CIRCLE ( 'NONE', #148, 2.000000000000000000 ) ;
#205 = DIRECTION ( 'NONE',  ( 0.7071067811865462405, -2.897562362236303877E-16, 0.7071067811865487940 ) ) ;
#206 = LOCAL_TIME ( 10, 11, 47.00000000000000000, #146 ) ;
#207 = CARTESIAN_POINT ( 'NONE',  ( 0.000000000000000000, -1.414213562373096256, -1.414213562373093369 ) ) ;
#208 = CC_DESIGN_PERSON_AND_ORGANIZATION_ASSIGNMENT ( #40, #95, ( #65 ) ) ;
#209 = VERTEX_POINT ( 'NONE', #132 ) ;
#210 = ADVANCED_FACE ( 'NONE', ( #7 ), #202, .T. ) ;
#211 = ORIENTED_EDGE ( 'NONE', *, *, #56, .F. ) ;
#212 = CIRCLE ( 'NONE', #195, 2.000000000000000444 ) ;
#213 = APPROVAL ( #165, 'UNSPECIFIED' ) ;
ENDSEC;
END-ISO-10303-21;
