ISO-10303-21;
HEADER;
FILE_DESCRIPTION (( 'STEP AP203' ),
    '1' );
FILE_NAME ('450507.STEP',
    '2024-01-21T18:13:44',
    ( '' ),
    ( '' ),
    'SwSTEP 2.0',
    'SolidWorks 2021',
    '' );
FILE_SCHEMA (( 'CONFIG_CONTROL_DESIGN' ));
ENDSEC;

DATA;
#1 = ORIENTED_EDGE ( 'NONE', *, *, #208, .F. ) ;
#2 = DATE_TIME_ROLE ( 'classification_date' ) ;
#3 = ORIENTED_EDGE ( 'NONE', *, *, #42, .F. ) ;
#4 = APPROVAL_DATE_TIME ( #146, #143 ) ;
#5 = PLANE ( 'NONE',  #108 ) ;
#6 = DIRECTION ( 'NONE',  ( -0.7071067811865487940, -2.595580041486235301E-16, 0.7071067811865462405 ) ) ;
#7 = LENGTH_MEASURE_WITH_UNIT ( LENGTH_MEASURE( 0.02539999999999999897 ), #10 );
#8 = CARTESIAN_POINT ( 'NONE',  ( 0.000000000000000000, -1.414213562373096256, -1.414213562373093369 ) ) ;
#9 = LOCAL_TIME ( 10, 13, 44.00000000000000000, #159 ) ;
#10 =( LENGTH_UNIT ( ) NAMED_UNIT ( * ) SI_UNIT ( $, .METRE. ) );
#11 = CIRCLE ( 'NONE', #41, 2.000000000000000000 ) ;
#12 = EDGE_CURVE ( 'NONE', #60, #14, #186, .T. ) ;
#13 = EDGE_LOOP ( 'NONE', ( #29, #71, #79 ) ) ;
#14 = VERTEX_POINT ( 'NONE', #113 ) ;
#15 = AXIS2_PLACEMENT_3D ( 'NONE', #37, #202, #38 ) ;
#16 = MANIFOLD_SOLID_BREP ( 'Revolve1', #90 ) ;
#17 = FACE_OUTER_BOUND ( 'NONE', #116, .T. ) ;
#18 = LINE ( 'NONE', #83, #160 ) ;
#19 = CARTESIAN_POINT ( 'NONE',  ( 0.000000000000000000, -1.414213562373096256, -1.414213562373093369 ) ) ;
#20 = ADVANCED_FACE ( 'NONE', ( #94 ), #138, .T. ) ;
#21 = CARTESIAN_POINT ( 'NONE',  ( -2.731847993664263218E-16, 0.6907864376269038376, -1.414213562373092481 ) ) ;
#22 = CARTESIAN_POINT ( 'NONE',  ( 1.488459774397685287, -1.414213562373091371, 0.07424621202458686620 ) ) ;
#23 = LOCAL_TIME ( 10, 13, 44.00000000000000000, #188 ) ;
#24 = CARTESIAN_POINT ( 'NONE',  ( 0.000000000000000000, 0.000000000000000000, 0.000000000000000000 ) ) ;
#25 = AXIS2_PLACEMENT_3D ( 'NONE', #210, #204, #105 ) ;
#26 = EDGE_CURVE ( 'NONE', #14, #196, #203, .T. ) ;
#27 = ORIENTED_EDGE ( 'NONE', *, *, #161, .F. ) ;
#28 = APPROVAL_ROLE ( '' ) ;
#29 = ORIENTED_EDGE ( 'NONE', *, *, #197, .F. ) ;
#30 = CC_DESIGN_SECURITY_CLASSIFICATION ( #155, ( #140 ) ) ;
#31 = CC_DESIGN_APPROVAL ( #211, ( #140 ) ) ;
#32 = PERSON_AND_ORGANIZATION_ROLE ( 'classification_officer' ) ;
#33 = CARTESIAN_POINT ( 'NONE',  ( 0.000000000000000000, -1.414213562373096256, -1.414213562373093369 ) ) ;
#34 = CIRCLE ( 'NONE', #167, 2.105000000000000426 ) ;
#35 = PERSON_AND_ORGANIZATION ( #126, #76 ) ;
#36 = FACE_OUTER_BOUND ( 'NONE', #181, .T. ) ;
#37 = CARTESIAN_POINT ( 'NONE',  ( 0.000000000000000000, -1.414213562373091371, -1.414213562373093369 ) ) ;
#38 = DIRECTION ( 'NONE',  ( 0.000000000000000000, -4.097771990496393842E-16, 1.000000000000000000 ) ) ;
#39 = DATE_AND_TIME ( #170, #23 ) ;
#40 = CC_DESIGN_PERSON_AND_ORGANIZATION_ASSIGNMENT ( #171, #114, ( #140 ) ) ;
#41 = AXIS2_PLACEMENT_3D ( 'NONE', #8, #187, #206 ) ;
#42 = EDGE_CURVE ( 'NONE', #196, #162, #70, .T. ) ;
#43 = ORIENTED_EDGE ( 'NONE', *, *, #12, .F. ) ;
#44 = VERTEX_POINT ( 'NONE', #119 ) ;
#45 = EDGE_CURVE ( 'NONE', #44, #162, #11, .T. ) ;
#46 = PERSON_AND_ORGANIZATION_ROLE ( 'design_supplier' ) ;
#47 = SECURITY_CLASSIFICATION_LEVEL ( 'unclassified' ) ;
#48 = FACE_OUTER_BOUND ( 'NONE', #13, .T. ) ;
#49 = DATE_AND_TIME ( #89, #182 ) ;
#50 = DATE_AND_TIME ( #96, #95 ) ;
#51 = DIRECTION ( 'NONE',  ( 0.7071067811865486830, -5.323540950757933957E-15, -0.7071067811865462405 ) ) ;
#52 = VECTOR ( 'NONE', #55, 39.37007874015748143 ) ;
#53 = APPROVAL_PERSON_ORGANIZATION ( #122, #131, #54 ) ;
#54 = APPROVAL_ROLE ( '' ) ;
#55 = DIRECTION ( 'NONE',  ( -1.549965898529580794E-15, 1.000000000000000000, 1.959743097579215050E-15 ) ) ;
#56 = ADVANCED_FACE ( 'NONE', ( #36 ), #185, .T. ) ;
#57 = SHAPE_DEFINITION_REPRESENTATION ( #91, #142 ) ;
#58 = AXIS2_PLACEMENT_3D ( 'NONE', #33, #169, #6 ) ;
#59 = PERSON_AND_ORGANIZATION ( #126, #76 ) ;
#60 = VERTEX_POINT ( 'NONE', #21 ) ;
#61 = EDGE_LOOP ( 'NONE', ( #77, #198, #97, #213 ) ) ;
#62 = CALENDAR_DATE ( 2024, 21, 1 ) ;
#63 = DESIGN_CONTEXT ( 'detailed design', #194, 'design' ) ;
#64 = DIRECTION ( 'NONE',  ( 0.000000000000000000, -1.000000000000000000, -4.097771990496395814E-16 ) ) ;
#65 = CARTESIAN_POINT ( 'NONE',  ( -1.414213562373097810, -1.414213562373091815, -5.463695987328526437E-16 ) ) ;
#66 = FACE_OUTER_BOUND ( 'NONE', #92, .T. ) ;
#67 = CARTESIAN_POINT ( 'NONE',  ( -1.414213562373097810, -1.414213562373091593, -5.463695987328525451E-16 ) ) ;
#68 = DIRECTION ( 'NONE',  ( 0.000000000000000000, 0.000000000000000000, 1.000000000000000000 ) ) ;
#69 = APPLICATION_PROTOCOL_DEFINITION ( 'international standard', 'config_control_design', 1994, #183 ) ;
#70 = CIRCLE ( 'NONE', #205, 2.000000000000000000 ) ;
#71 = ORIENTED_EDGE ( 'NONE', *, *, #12, .T. ) ;
#72 = AXIS2_PLACEMENT_3D ( 'NONE', #101, #172, #134 ) ;
#73 = CC_DESIGN_DATE_AND_TIME_ASSIGNMENT ( #49, #133, ( #175 ) ) ;
#74 = ADVANCED_FACE ( 'NONE', ( #48 ), #166, .T. ) ;
#75 = CARTESIAN_POINT ( 'NONE',  ( 0.000000000000000000, -1.414213562373096256, -1.414213562373093369 ) ) ;
#76 = ORGANIZATION ( 'UNSPECIFIED', 'UNSPECIFIED', '' ) ;
#77 = ORIENTED_EDGE ( 'NONE', *, *, #190, .F. ) ;
#78 = APPROVAL_DATE_TIME ( #50, #211 ) ;
#79 = ORIENTED_EDGE ( 'NONE', *, *, #190, .T. ) ;
#80 = DIRECTION ( 'NONE',  ( 0.7071067811865486830, 1.200209628260102044E-16, 0.7071067811865462405 ) ) ;
#81 = UNCERTAINTY_MEASURE_WITH_UNIT (LENGTH_MEASURE( 1.000000000000000082E-05 ), #121, 'distance_accuracy_value', 'NONE');
#82 = APPROVAL_ROLE ( '' ) ;
#83 = CARTESIAN_POINT ( 'NONE',  ( 1.414213562373097810, -1.414213562373091815, -5.463695987328526437E-16 ) ) ;
#84 = CARTESIAN_POINT ( 'NONE',  ( 0.000000000000000000, 0.5857864376269035223, -1.414213562373092703 ) ) ;
#85 = DIRECTION ( 'NONE',  ( 1.000000000000000000, 0.000000000000000000, 0.000000000000000000 ) ) ;
#86 = CC_DESIGN_PERSON_AND_ORGANIZATION_ASSIGNMENT ( #107, #176, ( #175 ) ) ;
#87 = ADVANCED_FACE ( 'NONE', ( #17 ), #5, .F. ) ;
#88 = DIRECTION ( 'NONE',  ( 0.7071067811865462405, -2.897562362236303877E-16, 0.7071067811865487940 ) ) ;
#89 = CALENDAR_DATE ( 2024, 21, 1 ) ;
#90 = CLOSED_SHELL ( 'NONE', ( #158, #20, #74, #56, #87 ) ) ;
#91 = PRODUCT_DEFINITION_SHAPE ( 'NONE', 'NONE',  #175 ) ;
#92 = EDGE_LOOP ( 'NONE', ( #27, #111, #128 ) ) ;
#93 = APPROVAL_PERSON_ORGANIZATION ( #59, #143, #28 ) ;
#94 = FACE_OUTER_BOUND ( 'NONE', #61, .T. ) ;
#95 = LOCAL_TIME ( 10, 13, 44.00000000000000000, #163 ) ;
#96 = CALENDAR_DATE ( 2024, 21, 1 ) ;
#97 = ORIENTED_EDGE ( 'NONE', *, *, #161, .T. ) ;
#98 = APPROVAL_STATUS ( 'not_yet_approved' ) ;
#99 = ORIENTED_EDGE ( 'NONE', *, *, #45, .T. ) ;
#100 = AXIS2_PLACEMENT_3D ( 'NONE', #67, #64, #103 ) ;
#101 = CARTESIAN_POINT ( 'NONE',  ( 0.000000000000000000, -1.414213562373096256, -1.414213562373093369 ) ) ;
#102 = DIRECTION ( 'NONE',  ( -0.7071067811865486830, -2.731847993664262725E-16, 0.7071067811865462405 ) ) ;
#103 = DIRECTION ( 'NONE',  ( 0.000000000000000000, 4.097771990496395814E-16, -1.000000000000000000 ) ) ;
#104 = CC_DESIGN_PERSON_AND_ORGANIZATION_ASSIGNMENT ( #35, #139, ( #179 ) ) ;
#105 = DIRECTION ( 'NONE',  ( 0.7071067811865486830, 1.297790020743117650E-16, 0.7071067811865462405 ) ) ;
#106 =( NAMED_UNIT ( * ) SI_UNIT ( $, .STERADIAN. ) SOLID_ANGLE_UNIT ( ) );
#107 = PERSON_AND_ORGANIZATION ( #126, #76 ) ;
#108 = AXIS2_PLACEMENT_3D ( 'NONE', #149, #201, #80 ) ;
#109 = CC_DESIGN_DATE_AND_TIME_ASSIGNMENT ( #110, #2, ( #155 ) ) ;
#110 = DATE_AND_TIME ( #136, #115 ) ;
#111 = ORIENTED_EDGE ( 'NONE', *, *, #42, .T. ) ;
#112 = DIRECTION ( 'NONE',  ( 0.7071067811865463515, -2.897562362236303877E-16, 0.7071067811865487940 ) ) ;
#113 = CARTESIAN_POINT ( 'NONE',  ( -1.488459774397685731, -1.414213562373091371, 0.07424621202458674130 ) ) ;
#114 = PERSON_AND_ORGANIZATION_ROLE ( 'creator' ) ;
#115 = LOCAL_TIME ( 10, 13, 44.00000000000000000, #168 ) ;
#116 = EDGE_LOOP ( 'NONE', ( #99, #144, #164, #199 ) ) ;
#117 = DIRECTION ( 'NONE',  ( -0.7071067811865487940, 1.365923996832131609E-16, 0.7071067811865463515 ) ) ;
#118 = VECTOR ( 'NONE', #51, 39.37007874015748854 ) ;
#119 = CARTESIAN_POINT ( 'NONE',  ( 1.414213562373097810, -1.414213562373091815, -5.463695987328526437E-16 ) ) ;
#120 = COORDINATED_UNIVERSAL_TIME_OFFSET ( 8, 0, .BEHIND. ) ;
#121 =( CONVERSION_BASED_UNIT ( 'INCH', #7 ) LENGTH_UNIT ( ) NAMED_UNIT ( #145 ) );
#122 = PERSON_AND_ORGANIZATION ( #126, #76 ) ;
#123 = CC_DESIGN_APPROVAL ( #143, ( #155 ) ) ;
#124 = EDGE_CURVE ( 'NONE', #132, #44, #18, .T. ) ;
#125 = APPROVAL_PERSON_ORGANIZATION ( #200, #211, #82 ) ;
#126 = PERSON ( 'UNSPECIFIED', 'UNSPECIFIED', 'UNSPECIFIED', ('UNSPECIFIED'), ('UNSPECIFIED'), ('UNSPECIFIED') ) ;
#127 = CIRCLE ( 'NONE', #25, 2.105000000000000426 ) ;
#128 = ORIENTED_EDGE ( 'NONE', *, *, #45, .F. ) ;
#129 = DIRECTION ( 'NONE',  ( -0.7071067811865486830, 1.297790020743117650E-16, 0.7071067811865462405 ) ) ;
#130 = ORIENTED_EDGE ( 'NONE', *, *, #26, .F. ) ;
#131 = APPROVAL ( #192, 'UNSPECIFIED' ) ;
#132 = VERTEX_POINT ( 'NONE', #22 ) ;
#133 = DATE_TIME_ROLE ( 'creation_date' ) ;
#134 = DIRECTION ( 'NONE',  ( -0.7071067811865486830, 1.200209628260102537E-16, 0.7071067811865462405 ) ) ;
#135 = MECHANICAL_CONTEXT ( 'NONE', #183, 'mechanical' ) ;
#136 = CALENDAR_DATE ( 2024, 21, 1 ) ;
#137 = DIRECTION ( 'NONE',  ( -0.7071067811865463515, 2.897562362236303877E-16, -0.7071067811865487940 ) ) ;
#138 = PLANE ( 'NONE',  #100 ) ;
#139 = PERSON_AND_ORGANIZATION_ROLE ( 'design_owner' ) ;
#140 = PRODUCT_DEFINITION_FORMATION_WITH_SPECIFIED_SOURCE ( 'ANY', '', #179, .NOT_KNOWN. ) ;
#141 = CARTESIAN_POINT ( 'NONE',  ( 0.000000000000000000, 0.5857864376269035223, -1.414213562373092703 ) ) ;
#142 = ADVANCED_BREP_SHAPE_REPRESENTATION ( '450507', ( #16, #178 ), #212 ) ;
#143 = APPROVAL ( #195, 'UNSPECIFIED' ) ;
#144 = ORIENTED_EDGE ( 'NONE', *, *, #208, .T. ) ;
#145 = DIMENSIONAL_EXPONENTS ( 1.000000000000000000, 0.000000000000000000, 0.000000000000000000, 0.000000000000000000, 0.000000000000000000, 0.000000000000000000, 0.000000000000000000 ) ;
#146 = DATE_AND_TIME ( #62, #9 ) ;
#147 = CIRCLE ( 'NONE', #15, 2.000000000000000444 ) ;
#148 = PRODUCT_RELATED_PRODUCT_CATEGORY ( 'detail', '', ( #179 ) ) ;
#149 = CARTESIAN_POINT ( 'NONE',  ( 0.000000000000000000, -1.414213562373096256, -1.414213562373093369 ) ) ;
#150 = DIRECTION ( 'NONE',  ( -0.7071067811865486830, -5.323540950757933957E-15, -0.7071067811865462405 ) ) ;
#151 = LINE ( 'NONE', #141, #52 ) ;
#152 = CARTESIAN_POINT ( 'NONE',  ( 0.000000000000000000, -1.414213562373096256, -1.414213562373093369 ) ) ;
#153 = SPHERICAL_SURFACE ( 'NONE', #177, 2.000000000000000000 ) ;
#154 = DIRECTION ( 'NONE',  ( 0.000000000000000000, -3.893370062229352951E-16, 1.000000000000000000 ) ) ;
#155 = SECURITY_CLASSIFICATION ( '', '', #47 ) ;
#156 = CARTESIAN_POINT ( 'NONE',  ( 0.000000000000000000, -1.414213562373090705, -1.414213562373093369 ) ) ;
#157 = AXIS2_PLACEMENT_3D ( 'NONE', #75, #112, #129 ) ;
#158 = ADVANCED_FACE ( 'NONE', ( #66 ), #153, .F. ) ;
#159 = COORDINATED_UNIVERSAL_TIME_OFFSET ( 8, 0, .BEHIND. ) ;
#160 = VECTOR ( 'NONE', #150, 39.37007874015748854 ) ;
#161 = EDGE_CURVE ( 'NONE', #196, #44, #147, .T. ) ;
#162 = VERTEX_POINT ( 'NONE', #84 ) ;
#163 = COORDINATED_UNIVERSAL_TIME_OFFSET ( 8, 0, .BEHIND. ) ;
#164 = ORIENTED_EDGE ( 'NONE', *, *, #197, .T. ) ;
#165 = PERSON_AND_ORGANIZATION ( #126, #76 ) ;
#166 = SPHERICAL_SURFACE ( 'NONE', #58, 2.104999999999999982 ) ;
#167 = AXIS2_PLACEMENT_3D ( 'NONE', #156, #173, #154 ) ;
#168 = COORDINATED_UNIVERSAL_TIME_OFFSET ( 8, 0, .BEHIND. ) ;
#169 = DIRECTION ( 'NONE',  ( 0.7071067811865462405, -2.897562362236303384E-16, 0.7071067811865489050 ) ) ;
#170 = CALENDAR_DATE ( 2024, 21, 1 ) ;
#171 = PERSON_AND_ORGANIZATION ( #126, #76 ) ;
#172 = DIRECTION ( 'NONE',  ( -0.7071067811865463515, 2.897562362236303877E-16, -0.7071067811865487940 ) ) ;
#173 = DIRECTION ( 'NONE',  ( -0.000000000000000000, 1.000000000000000000, 4.097771990496395814E-16 ) ) ;
#174 = APPROVAL_DATE_TIME ( #39, #131 ) ;
#175 = PRODUCT_DEFINITION ( 'UNKNOWN', '', #140, #63 ) ;
#176 = PERSON_AND_ORGANIZATION_ROLE ( 'creator' ) ;
#177 = AXIS2_PLACEMENT_3D ( 'NONE', #19, #88, #102 ) ;
#178 = AXIS2_PLACEMENT_3D ( 'NONE', #24, #68, #85 ) ;
#179 = PRODUCT ( '450507', '450507', '', ( #135 ) ) ;
#180 = CC_DESIGN_PERSON_AND_ORGANIZATION_ASSIGNMENT ( #184, #46, ( #140 ) ) ;
#181 = EDGE_LOOP ( 'NONE', ( #3, #130, #43, #1 ) ) ;
#182 = LOCAL_TIME ( 10, 13, 44.00000000000000000, #120 ) ;
#183 = APPLICATION_CONTEXT ( 'configuration controlled 3d designs of mechanical parts and assemblies' ) ;
#184 = PERSON_AND_ORGANIZATION ( #126, #76 ) ;
#185 = PLANE ( 'NONE',  #72 ) ;
#186 = CIRCLE ( 'NONE', #157, 2.105000000000000426 ) ;
#187 = DIRECTION ( 'NONE',  ( -0.7071067811865463515, -2.897562362236303384E-16, 0.7071067811865487940 ) ) ;
#188 = COORDINATED_UNIVERSAL_TIME_OFFSET ( 8, 0, .BEHIND. ) ;
#189 = CC_DESIGN_PERSON_AND_ORGANIZATION_ASSIGNMENT ( #165, #32, ( #155 ) ) ;
#190 = EDGE_CURVE ( 'NONE', #14, #132, #34, .T. ) ;
#191 =( NAMED_UNIT ( * ) PLANE_ANGLE_UNIT ( ) SI_UNIT ( $, .RADIAN. ) );
#192 = APPROVAL_STATUS ( 'not_yet_approved' ) ;
#193 = CC_DESIGN_APPROVAL ( #131, ( #175 ) ) ;
#194 = APPLICATION_CONTEXT ( 'configuration controlled 3d designs of mechanical parts and assemblies' ) ;
#195 = APPROVAL_STATUS ( 'not_yet_approved' ) ;
#196 = VERTEX_POINT ( 'NONE', #209 ) ;
#197 = EDGE_CURVE ( 'NONE', #60, #132, #127, .T. ) ;
#198 = ORIENTED_EDGE ( 'NONE', *, *, #26, .T. ) ;
#199 = ORIENTED_EDGE ( 'NONE', *, *, #124, .T. ) ;
#200 = PERSON_AND_ORGANIZATION ( #126, #76 ) ;
#201 = DIRECTION ( 'NONE',  ( -0.7071067811865463515, -2.897562362236303877E-16, 0.7071067811865487940 ) ) ;
#202 = DIRECTION ( 'NONE',  ( -0.000000000000000000, 1.000000000000000000, 4.097771990496395814E-16 ) ) ;
#203 = LINE ( 'NONE', #65, #118 ) ;
#204 = DIRECTION ( 'NONE',  ( 0.7071067811865463515, 2.897562362236303384E-16, -0.7071067811865487940 ) ) ;
#205 = AXIS2_PLACEMENT_3D ( 'NONE', #152, #137, #117 ) ;
#206 = DIRECTION ( 'NONE',  ( 0.7071067811865487940, 1.365923996832131609E-16, 0.7071067811865463515 ) ) ;
#207 = APPLICATION_PROTOCOL_DEFINITION ( 'international standard', 'config_control_design', 1994, #194 ) ;
#208 = EDGE_CURVE ( 'NONE', #162, #60, #151, .T. ) ;
#209 = CARTESIAN_POINT ( 'NONE',  ( -1.414213562373097810, -1.414213562373091815, -5.463695987328526437E-16 ) ) ;
#210 = CARTESIAN_POINT ( 'NONE',  ( 0.000000000000000000, -1.414213562373096256, -1.414213562373093369 ) ) ;
#211 = APPROVAL ( #98, 'UNSPECIFIED' ) ;
#212 =( GEOMETRIC_REPRESENTATION_CONTEXT ( 3 ) GLOBAL_UNCERTAINTY_ASSIGNED_CONTEXT ( ( #81 ) ) GLOBAL_UNIT_ASSIGNED_CONTEXT ( ( #121, #191, #106 ) ) REPRESENTATION_CONTEXT ( 'NONE', 'WORKASPACE' ) );
#213 = ORIENTED_EDGE ( 'NONE', *, *, #124, .F. ) ;
ENDSEC;
END-ISO-10303-21;
