ISO-10303-21;
HEADER;
FILE_DESCRIPTION (( 'STEP AP203' ),
    '1' );
FILE_NAME ('450509.STEP',
    '2024-01-21T18:28:27',
    ( '' ),
    ( '' ),
    'SwSTEP 2.0',
    'SolidWorks 2021',
    '' );
FILE_SCHEMA (( 'CONFIG_CONTROL_DESIGN' ));
ENDSEC;

DATA;
#1 = MANIFOLD_SOLID_BREP ( 'Revolve1', #165 ) ;
#2 = CARTESIAN_POINT ( 'NONE',  ( 0.000000000000000000, -1.414213562373096256, -1.414213562373093369 ) ) ;
#3 = CARTESIAN_POINT ( 'NONE',  ( 0.000000000000000000, -1.414213562373090705, -1.414213562373093369 ) ) ;
#4 = ADVANCED_FACE ( 'NONE', ( #174 ), #93, .F. ) ;
#5 = COORDINATED_UNIVERSAL_TIME_OFFSET ( 8, 0, .BEHIND. ) ;
#6 = AXIS2_PLACEMENT_3D ( 'NONE', #156, #9, #43 ) ;
#7 = PERSON_AND_ORGANIZATION_ROLE ( 'creator' ) ;
#8 = AXIS2_PLACEMENT_3D ( 'NONE', #212, #163, #15 ) ;
#9 = DIRECTION ( 'NONE',  ( 0.000000000000000000, 0.000000000000000000, 1.000000000000000000 ) ) ;
#10 = ORIENTED_EDGE ( 'NONE', *, *, #58, .F. ) ;
#11 = PERSON_AND_ORGANIZATION_ROLE ( 'classification_officer' ) ;
#12 = CARTESIAN_POINT ( 'NONE',  ( 0.000000000000000000, -1.414213562373096256, -1.414213562373093369 ) ) ;
#13 = PERSON_AND_ORGANIZATION ( #189, #54 ) ;
#14 = CARTESIAN_POINT ( 'NONE',  ( 1.509672977833282026, -1.414213562373091371, 0.09545941546018343882 ) ) ;
#15 = DIRECTION ( 'NONE',  ( -0.7071067811865487940, 1.365923996832131609E-16, 0.7071067811865463515 ) ) ;
#16 = COORDINATED_UNIVERSAL_TIME_OFFSET ( 8, 0, .BEHIND. ) ;
#17 = CARTESIAN_POINT ( 'NONE',  ( -2.731847993664263218E-16, 0.7207864376269038642, -1.414213562373092481 ) ) ;
#18 = LOCAL_TIME ( 10, 28, 27.00000000000000000, #5 ) ;
#19 = DIRECTION ( 'NONE',  ( -0.7071067811865463515, -2.897562362236303384E-16, 0.7071067811865487940 ) ) ;
#20 = CARTESIAN_POINT ( 'NONE',  ( 0.000000000000000000, 0.5857864376269035223, -1.414213562373092703 ) ) ;
#21 = DATE_TIME_ROLE ( 'creation_date' ) ;
#22 = APPLICATION_PROTOCOL_DEFINITION ( 'international standard', 'config_control_design', 1994, #195 ) ;
#23 = PERSON_AND_ORGANIZATION ( #189, #54 ) ;
#24 = CC_DESIGN_PERSON_AND_ORGANIZATION_ASSIGNMENT ( #193, #11, ( #129 ) ) ;
#25 = APPROVAL_STATUS ( 'not_yet_approved' ) ;
#26 = CALENDAR_DATE ( 2024, 21, 1 ) ;
#27 = VERTEX_POINT ( 'NONE', #14 ) ;
#28 = AXIS2_PLACEMENT_3D ( 'NONE', #77, #146, #211 ) ;
#29 = PRODUCT_DEFINITION_FORMATION_WITH_SPECIFIED_SOURCE ( 'ANY', '', #149, .NOT_KNOWN. ) ;
#30 = DATE_AND_TIME ( #26, #116 ) ;
#31 = SPHERICAL_SURFACE ( 'NONE', #143, 2.000000000000000000 ) ;
#32 = SPHERICAL_SURFACE ( 'NONE', #33, 2.135000000000000231 ) ;
#33 = AXIS2_PLACEMENT_3D ( 'NONE', #2, #180, #133 ) ;
#34 = LOCAL_TIME ( 10, 28, 27.00000000000000000, #178 ) ;
#35 = CARTESIAN_POINT ( 'NONE',  ( 0.000000000000000000, 0.5857864376269035223, -1.414213562373092703 ) ) ;
#36 = LINE ( 'NONE', #167, #101 ) ;
#37 = ADVANCED_FACE ( 'NONE', ( #205 ), #176, .T. ) ;
#38 = CIRCLE ( 'NONE', #196, 2.135000000000000231 ) ;
#39 = APPROVAL_PERSON_ORGANIZATION ( #13, #198, #115 ) ;
#40 = APPROVAL_DATE_TIME ( #55, #131 ) ;
#41 = CC_DESIGN_PERSON_AND_ORGANIZATION_ASSIGNMENT ( #106, #7, ( #148 ) ) ;
#42 = ORIENTED_EDGE ( 'NONE', *, *, #119, .T. ) ;
#43 = DIRECTION ( 'NONE',  ( 1.000000000000000000, 0.000000000000000000, 0.000000000000000000 ) ) ;
#44 = ORIENTED_EDGE ( 'NONE', *, *, #121, .T. ) ;
#45 = DIRECTION ( 'NONE',  ( 0.000000000000000000, -4.097771990496393842E-16, 1.000000000000000000 ) ) ;
#46 = ORIENTED_EDGE ( 'NONE', *, *, #58, .T. ) ;
#47 = ORIENTED_EDGE ( 'NONE', *, *, #183, .T. ) ;
#48 = SECURITY_CLASSIFICATION_LEVEL ( 'unclassified' ) ;
#49 = DIRECTION ( 'NONE',  ( -0.7071067811865486830, -4.167203175661944792E-15, -0.7071067811865462405 ) ) ;
#50 = LINE ( 'NONE', #35, #95 ) ;
#51 = CARTESIAN_POINT ( 'NONE',  ( 0.000000000000000000, -1.414213562373091371, -1.414213562373093369 ) ) ;
#52 = CALENDAR_DATE ( 2024, 21, 1 ) ;
#53 = LENGTH_MEASURE_WITH_UNIT ( LENGTH_MEASURE( 0.02539999999999999897 ), #207 );
#54 = ORGANIZATION ( 'UNSPECIFIED', 'UNSPECIFIED', '' ) ;
#55 = DATE_AND_TIME ( #203, #18 ) ;
#56 = CC_DESIGN_PERSON_AND_ORGANIZATION_ASSIGNMENT ( #108, #172, ( #29 ) ) ;
#57 = EDGE_LOOP ( 'NONE', ( #142, #162, #42, #46 ) ) ;
#58 = EDGE_CURVE ( 'NONE', #27, #89, #36, .T. ) ;
#59 = DIRECTION ( 'NONE',  ( 0.7071067811865486830, 1.200209628260102044E-16, 0.7071067811865462405 ) ) ;
#60 = EDGE_LOOP ( 'NONE', ( #194, #44, #47, #10 ) ) ;
#61 = DIRECTION ( 'NONE',  ( -0.000000000000000000, 1.000000000000000000, 4.097771990496395814E-16 ) ) ;
#62 = PERSON_AND_ORGANIZATION_ROLE ( 'design_supplier' ) ;
#63 = CC_DESIGN_APPROVAL ( #198, ( #129 ) ) ;
#64 = CARTESIAN_POINT ( 'NONE',  ( 0.000000000000000000, -1.414213562373096256, -1.414213562373093369 ) ) ;
#65 = DIRECTION ( 'NONE',  ( 0.7071067811865487940, 1.365923996832131609E-16, 0.7071067811865463515 ) ) ;
#66 = DIRECTION ( 'NONE',  ( 0.7071067811865487940, 1.279554095393097433E-16, 0.7071067811865462405 ) ) ;
#67 = PRODUCT_RELATED_PRODUCT_CATEGORY ( 'detail', '', ( #149 ) ) ;
#68 = APPROVAL_STATUS ( 'not_yet_approved' ) ;
#69 = ADVANCED_FACE ( 'NONE', ( #135 ), #32, .T. ) ;
#70 = DATE_AND_TIME ( #52, #112 ) ;
#71 = UNCERTAINTY_MEASURE_WITH_UNIT (LENGTH_MEASURE( 1.000000000000000082E-05 ), #191, 'distance_accuracy_value', 'NONE');
#72 = ORIENTED_EDGE ( 'NONE', *, *, #192, .T. ) ;
#73 = EDGE_LOOP ( 'NONE', ( #160, #190, #127, #94 ) ) ;
#74 = ORIENTED_EDGE ( 'NONE', *, *, #138, .T. ) ;
#75 = APPROVAL ( #25, 'UNSPECIFIED' ) ;
#76 = AXIS2_PLACEMENT_3D ( 'NONE', #3, #139, #144 ) ;
#77 = CARTESIAN_POINT ( 'NONE',  ( 0.000000000000000000, -1.414213562373096256, -1.414213562373093369 ) ) ;
#78 = DIRECTION ( 'NONE',  ( 0.7071067811865463515, 2.897562362236303384E-16, -0.7071067811865487940 ) ) ;
#79 = DATE_AND_TIME ( #134, #34 ) ;
#80 = FACE_OUTER_BOUND ( 'NONE', #128, .T. ) ;
#81 = CC_DESIGN_APPROVAL ( #75, ( #148 ) ) ;
#82 = MECHANICAL_CONTEXT ( 'NONE', #185, 'mechanical' ) ;
#83 = AXIS2_PLACEMENT_3D ( 'NONE', #150, #19, #65 ) ;
#84 = APPROVAL_PERSON_ORGANIZATION ( #159, #75, #186 ) ;
#85 = PERSON_AND_ORGANIZATION ( #189, #54 ) ;
#86 = COORDINATED_UNIVERSAL_TIME_OFFSET ( 8, 0, .BEHIND. ) ;
#87 =( NAMED_UNIT ( * ) PLANE_ANGLE_UNIT ( ) SI_UNIT ( $, .RADIAN. ) );
#88 = CC_DESIGN_PERSON_AND_ORGANIZATION_ASSIGNMENT ( #23, #62, ( #29 ) ) ;
#89 = VERTEX_POINT ( 'NONE', #181 ) ;
#90 = CALENDAR_DATE ( 2024, 21, 1 ) ;
#91 = CIRCLE ( 'NONE', #179, 2.000000000000000444 ) ;
#92 = ORIENTED_EDGE ( 'NONE', *, *, #183, .F. ) ;
#93 = PLANE ( 'NONE',  #124 ) ;
#94 = ORIENTED_EDGE ( 'NONE', *, *, #141, .F. ) ;
#95 = VECTOR ( 'NONE', #104, 39.37007874015748143 ) ;
#96 = SHAPE_DEFINITION_REPRESENTATION ( #177, #153 ) ;
#97 = EDGE_CURVE ( 'NONE', #89, #161, #151, .T. ) ;
#98 = CARTESIAN_POINT ( 'NONE',  ( 0.000000000000000000, -1.414213562373096256, -1.414213562373093369 ) ) ;
#99 = APPROVAL_STATUS ( 'not_yet_approved' ) ;
#100 = LINE ( 'NONE', #147, #188 ) ;
#101 = VECTOR ( 'NONE', #49, 39.37007874015748854 ) ;
#102 =( GEOMETRIC_REPRESENTATION_CONTEXT ( 3 ) GLOBAL_UNCERTAINTY_ASSIGNED_CONTEXT ( ( #71 ) ) GLOBAL_UNIT_ASSIGNED_CONTEXT ( ( #191, #87, #184 ) ) REPRESENTATION_CONTEXT ( 'NONE', 'WORKASPACE' ) );
#103 = CC_DESIGN_PERSON_AND_ORGANIZATION_ASSIGNMENT ( #110, #187, ( #149 ) ) ;
#104 = DIRECTION ( 'NONE',  ( -1.141138757473308761E-15, 1.000000000000000000, 1.550915956522944200E-15 ) ) ;
#105 = DIRECTION ( 'NONE',  ( -0.7071067811865486830, -2.731847993664262725E-16, 0.7071067811865462405 ) ) ;
#106 = PERSON_AND_ORGANIZATION ( #189, #54 ) ;
#107 = CIRCLE ( 'NONE', #8, 2.000000000000000000 ) ;
#108 = PERSON_AND_ORGANIZATION ( #189, #54 ) ;
#109 = AXIS2_PLACEMENT_3D ( 'NONE', #197, #137, #118 ) ;
#110 = PERSON_AND_ORGANIZATION ( #189, #54 ) ;
#111 = ADVANCED_FACE ( 'NONE', ( #80 ), #31, .F. ) ;
#112 = LOCAL_TIME ( 10, 28, 27.00000000000000000, #86 ) ;
#113 = VERTEX_POINT ( 'NONE', #17 ) ;
#114 = EDGE_CURVE ( 'NONE', #173, #161, #107, .T. ) ;
#115 = APPROVAL_ROLE ( '' ) ;
#116 = LOCAL_TIME ( 10, 28, 27.00000000000000000, #16 ) ;
#117 = DATE_TIME_ROLE ( 'classification_date' ) ;
#118 = DIRECTION ( 'NONE',  ( -0.7071067811865487940, 1.279554095393097433E-16, 0.7071067811865462405 ) ) ;
#119 = EDGE_CURVE ( 'NONE', #113, #27, #38, .T. ) ;
#120 = APPROVAL_DATE_TIME ( #70, #75 ) ;
#121 = EDGE_CURVE ( 'NONE', #130, #173, #100, .T. ) ;
#122 = DIRECTION ( 'NONE',  ( 0.000000000000000000, 4.097771990496395814E-16, -1.000000000000000000 ) ) ;
#123 = DESIGN_CONTEXT ( 'detailed design', #195, 'design' ) ;
#124 = AXIS2_PLACEMENT_3D ( 'NONE', #12, #210, #59 ) ;
#125 = LOCAL_TIME ( 10, 28, 27.00000000000000000, #171 ) ;
#126 = PLANE ( 'NONE',  #132 ) ;
#127 = ORIENTED_EDGE ( 'NONE', *, *, #138, .F. ) ;
#128 = EDGE_LOOP ( 'NONE', ( #92, #157, #208 ) ) ;
#129 = SECURITY_CLASSIFICATION ( '', '', #48 ) ;
#130 = VERTEX_POINT ( 'NONE', #164 ) ;
#131 = APPROVAL ( #68, 'UNSPECIFIED' ) ;
#132 = AXIS2_PLACEMENT_3D ( 'NONE', #170, #201, #122 ) ;
#133 = DIRECTION ( 'NONE',  ( -0.7071067811865486830, -2.559108190786194867E-16, 0.7071067811865463515 ) ) ;
#134 = CALENDAR_DATE ( 2024, 21, 1 ) ;
#135 = FACE_OUTER_BOUND ( 'NONE', #209, .T. ) ;
#136 = DIRECTION ( 'NONE',  ( 0.7071067811865486830, -4.167203175661944792E-15, -0.7071067811865462405 ) ) ;
#137 = DIRECTION ( 'NONE',  ( 0.7071067811865463515, -2.897562362236303877E-16, 0.7071067811865487940 ) ) ;
#138 = EDGE_CURVE ( 'NONE', #113, #130, #202, .T. ) ;
#139 = DIRECTION ( 'NONE',  ( -0.000000000000000000, 1.000000000000000000, 4.097771990496395814E-16 ) ) ;
#140 = DATE_AND_TIME ( #90, #125 ) ;
#141 = EDGE_CURVE ( 'NONE', #161, #113, #50, .T. ) ;
#142 = ORIENTED_EDGE ( 'NONE', *, *, #97, .T. ) ;
#143 = AXIS2_PLACEMENT_3D ( 'NONE', #98, #182, #105 ) ;
#144 = DIRECTION ( 'NONE',  ( 0.000000000000000000, -3.838662286179291560E-16, 1.000000000000000000 ) ) ;
#145 = APPLICATION_PROTOCOL_DEFINITION ( 'international standard', 'config_control_design', 1994, #185 ) ;
#146 = DIRECTION ( 'NONE',  ( -0.7071067811865463515, 2.897562362236303877E-16, -0.7071067811865487940 ) ) ;
#147 = CARTESIAN_POINT ( 'NONE',  ( -1.414213562373097810, -1.414213562373091815, -5.463695987328526437E-16 ) ) ;
#148 = PRODUCT_DEFINITION ( 'UNKNOWN', '', #29, #123 ) ;
#149 = PRODUCT ( '450509', '450509', '', ( #82 ) ) ;
#150 = CARTESIAN_POINT ( 'NONE',  ( 0.000000000000000000, -1.414213562373096256, -1.414213562373093369 ) ) ;
#151 = CIRCLE ( 'NONE', #83, 2.000000000000000000 ) ;
#152 = CC_DESIGN_DATE_AND_TIME_ASSIGNMENT ( #30, #117, ( #129 ) ) ;
#153 = ADVANCED_BREP_SHAPE_REPRESENTATION ( '450509', ( #1, #6 ), #102 ) ;
#154 = APPROVAL_ROLE ( '' ) ;
#155 = FACE_OUTER_BOUND ( 'NONE', #60, .T. ) ;
#156 = CARTESIAN_POINT ( 'NONE',  ( 0.000000000000000000, 0.000000000000000000, 0.000000000000000000 ) ) ;
#157 = ORIENTED_EDGE ( 'NONE', *, *, #114, .T. ) ;
#158 = CC_DESIGN_APPROVAL ( #131, ( #29 ) ) ;
#159 = PERSON_AND_ORGANIZATION ( #189, #54 ) ;
#160 = ORIENTED_EDGE ( 'NONE', *, *, #114, .F. ) ;
#161 = VERTEX_POINT ( 'NONE', #20 ) ;
#162 = ORIENTED_EDGE ( 'NONE', *, *, #141, .T. ) ;
#163 = DIRECTION ( 'NONE',  ( -0.7071067811865463515, 2.897562362236303877E-16, -0.7071067811865487940 ) ) ;
#164 = CARTESIAN_POINT ( 'NONE',  ( -1.509672977833282248, -1.414213562373091371, 0.09545941546018336943 ) ) ;
#165 = CLOSED_SHELL ( 'NONE', ( #111, #204, #69, #37, #4 ) ) ;
#166 = CIRCLE ( 'NONE', #76, 2.135000000000000675 ) ;
#167 = CARTESIAN_POINT ( 'NONE',  ( 1.414213562373097810, -1.414213562373091815, -5.463695987328526437E-16 ) ) ;
#168 = CC_DESIGN_DATE_AND_TIME_ASSIGNMENT ( #140, #21, ( #148 ) ) ;
#169 = DIMENSIONAL_EXPONENTS ( 1.000000000000000000, 0.000000000000000000, 0.000000000000000000, 0.000000000000000000, 0.000000000000000000, 0.000000000000000000, 0.000000000000000000 ) ;
#170 = CARTESIAN_POINT ( 'NONE',  ( -1.414213562373097810, -1.414213562373091593, -5.463695987328525451E-16 ) ) ;
#171 = COORDINATED_UNIVERSAL_TIME_OFFSET ( 8, 0, .BEHIND. ) ;
#172 = PERSON_AND_ORGANIZATION_ROLE ( 'creator' ) ;
#173 = VERTEX_POINT ( 'NONE', #200 ) ;
#174 = FACE_OUTER_BOUND ( 'NONE', #57, .T. ) ;
#175 = ORIENTED_EDGE ( 'NONE', *, *, #119, .F. ) ;
#176 = PLANE ( 'NONE',  #28 ) ;
#177 = PRODUCT_DEFINITION_SHAPE ( 'NONE', 'NONE',  #148 ) ;
#178 = COORDINATED_UNIVERSAL_TIME_OFFSET ( 8, 0, .BEHIND. ) ;
#179 = AXIS2_PLACEMENT_3D ( 'NONE', #51, #61, #45 ) ;
#180 = DIRECTION ( 'NONE',  ( 0.7071067811865463515, -2.897562362236303384E-16, 0.7071067811865486830 ) ) ;
#181 = CARTESIAN_POINT ( 'NONE',  ( 1.414213562373097810, -1.414213562373091815, -5.463695987328526437E-16 ) ) ;
#182 = DIRECTION ( 'NONE',  ( 0.7071067811865462405, -2.897562362236303877E-16, 0.7071067811865487940 ) ) ;
#183 = EDGE_CURVE ( 'NONE', #173, #89, #91, .T. ) ;
#184 =( NAMED_UNIT ( * ) SI_UNIT ( $, .STERADIAN. ) SOLID_ANGLE_UNIT ( ) );
#185 = APPLICATION_CONTEXT ( 'configuration controlled 3d designs of mechanical parts and assemblies' ) ;
#186 = APPROVAL_ROLE ( '' ) ;
#187 = PERSON_AND_ORGANIZATION_ROLE ( 'design_owner' ) ;
#188 = VECTOR ( 'NONE', #136, 39.37007874015748854 ) ;
#189 = PERSON ( 'UNSPECIFIED', 'UNSPECIFIED', 'UNSPECIFIED', ('UNSPECIFIED'), ('UNSPECIFIED'), ('UNSPECIFIED') ) ;
#190 = ORIENTED_EDGE ( 'NONE', *, *, #121, .F. ) ;
#191 =( CONVERSION_BASED_UNIT ( 'INCH', #53 ) LENGTH_UNIT ( ) NAMED_UNIT ( #169 ) );
#192 = EDGE_CURVE ( 'NONE', #130, #27, #166, .T. ) ;
#193 = PERSON_AND_ORGANIZATION ( #189, #54 ) ;
#194 = ORIENTED_EDGE ( 'NONE', *, *, #192, .F. ) ;
#195 = APPLICATION_CONTEXT ( 'configuration controlled 3d designs of mechanical parts and assemblies' ) ;
#196 = AXIS2_PLACEMENT_3D ( 'NONE', #64, #78, #66 ) ;
#197 = CARTESIAN_POINT ( 'NONE',  ( 0.000000000000000000, -1.414213562373096256, -1.414213562373093369 ) ) ;
#198 = APPROVAL ( #99, 'UNSPECIFIED' ) ;
#199 = CC_DESIGN_SECURITY_CLASSIFICATION ( #129, ( #29 ) ) ;
#200 = CARTESIAN_POINT ( 'NONE',  ( -1.414213562373097810, -1.414213562373091815, -5.463695987328526437E-16 ) ) ;
#201 = DIRECTION ( 'NONE',  ( 0.000000000000000000, -1.000000000000000000, -4.097771990496395814E-16 ) ) ;
#202 = CIRCLE ( 'NONE', #109, 2.135000000000000231 ) ;
#203 = CALENDAR_DATE ( 2024, 21, 1 ) ;
#204 = ADVANCED_FACE ( 'NONE', ( #155 ), #126, .T. ) ;
#205 = FACE_OUTER_BOUND ( 'NONE', #73, .T. ) ;
#206 = APPROVAL_PERSON_ORGANIZATION ( #85, #131, #154 ) ;
#207 =( LENGTH_UNIT ( ) NAMED_UNIT ( * ) SI_UNIT ( $, .METRE. ) );
#208 = ORIENTED_EDGE ( 'NONE', *, *, #97, .F. ) ;
#209 = EDGE_LOOP ( 'NONE', ( #175, #74, #72 ) ) ;
#210 = DIRECTION ( 'NONE',  ( -0.7071067811865463515, -2.897562362236303877E-16, 0.7071067811865487940 ) ) ;
#211 = DIRECTION ( 'NONE',  ( -0.7071067811865486830, 1.200209628260102537E-16, 0.7071067811865462405 ) ) ;
#212 = CARTESIAN_POINT ( 'NONE',  ( 0.000000000000000000, -1.414213562373096256, -1.414213562373093369 ) ) ;
#213 = APPROVAL_DATE_TIME ( #79, #198 ) ;
ENDSEC;
END-ISO-10303-21;
